Guitar Tabs, Chords and Lyrics


Angel On The Shoulder   Misc. Unsigned Bands



-------------------------------------------------------------------------------
		ANGEL ON THE SHOULDER - The English Panther
-------------------------------------------------------------------------------
Tabbed by: Rafa88offspring
Email: rafa88offspring@hotmail.com

Tuning:Standard

This is a song by Coheed and Cambria's Travis Stever (AKA The English 
http://www.myspace.com/theenglishpanther
it's a really great tune, you should check it out @ his myspace, if you
haven't already. He recently released an album, it's available through
iTunes, buy it!

I arranged this song for only one guitar, the original recording has an
acoustic guitar, an electric guitar, a bass and a banjo.
I'll accept corrections, constructive critisism, you can just e-mail me or
add me on MSN.

I'm going to divide it by parts, some of these parts get played more than
once in the song.


Part 1
e|---0-----------0----0---10---8--|
B|-8---8-10-8-------8---8----8----|
G|------------10------------------|
D|--------------------------------|
A|--------------------------------|
E|-8---8--8-8-8-----8------8---8--|

e|---0-----------0----0---10---8--|
B|-8---8-10-8-------8---8----8----|
G|------------10------------------|
D|--------------------------------|
A|-8---8--8-8-8-----8------8---8--|
E|--------------------------------|


Part 2
the 4 final notes are played by by turning up and down the volume knob
on your guitar
e|-----------------------------------------12-10--|
B|------0----0-0-0-0----0----0-(10)/12-10---------|
G|----9---9--9-7-9-7------------------------------|
D|-10----------------10---10----------------------|
A|------------------------------------------------|
E|------------------------------------------------|

Part 3
same as part 2 (the volume thing)
e|-----------------------|
B|-12-13-------13--------|
G|-------12-12----9-7-9--|
D|-----------------------|
A|-----------------------|
E|-----------------------|

Part 4
e|--------------------------------|
B|--------------------------------|
G|---------------2p0--------------|
D|---2p0---3p0---------3p0---2p0--|  X 2
A|-3-----3-----3-----3-----3------|
E|--------------------------------|

e|--------------------------------|
B|---------------5p0--------------|
G|---5p0---7p0---------7p0---5p0--|
D|-3-----3-----3-----3-----3------|  X 2
A|--------------------------------|
E|--------------------------------|

| /  slide up
| \  slide down
| h  hammer-on
| p  pull-off
| ~  vibrato
| +  harmonic
| x  Mute note


Important: The song above is NOT stored on the Chordie server. The original song is hosted at www.guitaretab.com. Chordie works as a search engine and provides on-the-fly formatting. Chordie does not index songs against artists'/composers' will. To remove this song please click here.

This song is displayed as text-only. Transposing and tuning is only available for chordpro-songs.

Login - add to songbook

Rating click stars to rate

Layout
Accuracy

SHARE PAGE  




You need to log in to post comments