Guitar Tabs, Chords and Lyrics


Sweet Melody  Misc. Unsigned Bands

e|-----------0h2p0--------0-----------------0-----0------------------|


B|--------3---------3-----3-----3-----3-----3--3--3--3--2h3--3-------|


G|-----2---------------2--2--2-----2--2--2--------2-----0-------0----|

D|--0----------------------------------------------------------------|
A|------------------------0-----------2-----------0-----0------------|
E|-------------------------------------------------------------------|
    [D]                      [Asus]            [Bm7]            [Asus]      [A7]                                        
e|-----------2h3p2--------0-----------------0-----0------------------|
B|--------3---------3-----3-----3-----3-----3--3--3--3--2h3--3-------|
G|-----2---------------2--2--2-----2--2--2--------2-----0-------0----|
D|--0----------------------------------------------------------------|
A|------------------------0-----------2-----------0-----0------------|
E|-------------------------------------------------------------------|

VERSE: (repeat 4 times)
    [D]            [Asus]            [Bm7]            [Asus]      [A7]                                                  
e|--------0-----0-----------------0-----0----------------------------|
B|--------3--3--3-----3-----3-----3--3--3—-3--2h3--3-----------------|
G|-----2--------2--2-----2--2--2--------2-----0-------0--------------|
D|--0----------------------------------------------------------------|
A|--------------0-----------2-----------0-----0----------------------|
E|-------------------------------------------------------------------|



INTERVERSES:
    [D]            [Asus]            [Bm7]            [Asus]      [A7]                                                  
e|--------5-----5-----------------0-----0----------------------------|
B|--------3--3--3-----3-----3-----3--3--3—-3--2h3--3-----------------|
G|-----2--------2--2-----2--2--2--------2-----0-------0--------------|
D|--0----------------------------------------------------------------|
A|--------------0-----------2-----------0-----0----------------------|
E|-------------------------------------------------------------------|



Ending: To end the song, play the verse section of the piece once again and end
on a D2 Chord.

Important: The song above is NOT stored on the Chordie server. The original song is hosted at www.guitaretab.com. Chordie works as a search engine and provides on-the-fly formatting. Chordie does not index songs against artists'/composers' will. To remove this song please click here.

Text color:
Chord color:
Chord grids: 
Font size:    
Page size: 

A7 Asus Bm7 D
variations - click chord images

Login - add to songbook

Transpose chords

Tuning

Rating click stars to rate

Layout
Accuracy

SHARE PAGE  




You need to log in to post comments