Guitar Tabs, Chords and Lyrics


Vegetarian Pork   Misc. Unsigned Bands



This is a great and ver simple song hope you enjoy it.


VERSE
E---------------------------------------------------------------|
B---------------------------------------------------------------|
G--------------------------------------5---5---5---5---7---7----|
D--------5----5--5---5---5---5--5--5--5---5---5---5---7---7---7-|
A-------5---5---5---5---5---5--5--5--3---3---3---3---5---5---7--|
E------3---3---3---3---3---3--3--3--------------------------5---|

CHORUS
E---------------------------------------------------------------|
B---------------------------------------------------------------|
G---------------4--4---4----------------------------------------|
D----3--3---3--4--4---4----5--5--5---4---4---4------------------|
A---3--3---3--2--2---2----5--5--5---4---4---4-------------------|


Important: The song above is NOT stored on the Chordie server. The original song is hosted at www.guitaretab.com. Chordie works as a search engine and provides on-the-fly formatting. Chordie does not index songs against artists'/composers' will. To remove this song please click here.

This song is displayed as text-only. Transposing and tuning is only available for chordpro-songs.

Login - add to songbook

Rating click stars to rate

Layout
Accuracy

SHARE PAGE  




You need to log in to post comments