Guitar Tabs, Chords and Lyrics


Knee Slapper   Misc. Unsigned Bands



(c) The sick men of europe

played in overdrive

(vvv played with the piano intro)
e|---------------------------------------------------------------------------|
B|---------------------------------------------------------------------------|
G|---------------------------------------------------------------------------|
D|--22--22-------------------------------------------------------------------|
A|--22--22-------------------------------------------------------------------|
E|--00--00-------------------------------------------------------------------|
pm  ..  ..

e|---------------------------------------------------------------------------|
B|---------------------------------------------------------------------------|
G|---------------------------------------------------------------------------|
D|---------------------------------------------------------------------------|
A|------------5-----7-----9---7---5------------------------------------------|
E|--------000-3-000-5-000-7-0-5-0-3------------------------------------------|x6
pm        ...   ...   ...   .   .

(vvv played heavy and slow...breakdown)
e|---------------------------------------------------------------------------|
B|---------------------------------------------------------------------------|
G|---------------------------------------------------------------------------|
D|-------2-----------------2-------------------------------------------------|
A|-------2-----5-----3-----2-------------------------------------------------|
E|---000-0-000-3-000-1-000-0-------------------------------------------------|x2
pm   ...   ...   ...   ...


e|---------------------------------------------------------------------------|
B|---------------------------------------------------------------------------|
G|---------------------------------------------------------------------------|
D|---------------------------------------------------------------------------|
A|------5-4-3-----------5-----7-----9---7---5--------------------------------|
E|-0000-3-2-1-------000-3-000-5-000-7-0-5-0-3--------------------------------|x6
pm ....             ...   ...   ...   .   .



Important: The song above is NOT stored on the Chordie server. The original song is hosted at www.guitaretab.com. Chordie works as a search engine and provides on-the-fly formatting. Chordie does not index songs against artists'/composers' will. To remove this song please click here.

This song is displayed as text-only. Transposing and tuning is only available for chordpro-songs.

Login - add to songbook

Rating click stars to rate

Layout
Accuracy

SHARE PAGE  




You need to log in to post comments