Guitar Tabs, Chords and Lyrics


The Only One   Misc. Unsigned Bands



My friend and I tried playing this song, but we kind of gave up. So here's what we had 
far. Maybe someone could finish it?

The Mile After - The Only One

Tabbed by: Danni O

Tuning: 1/2 Down, Dropped D


Guitar 1

e|-2--2--2--3--3--3--2--2--2--0--0--0-| X 4
B|--3--3--3--3--3--3--3--3--3--3--3--3|
G|---2--2-----2--2-----2--2-----2--2--|
D|------------------------------------|
A|------------------------------------|
D|------------------------------------|

Guitar 2

e|------------------------------------| X 4
B|------------------------------------|
G|---4---4----7--7----7--7----9--9----|
D|--4-4-4-4-7--5--5--7-7--7--7-7--7---|
A|-2---2---5-5--5---0---0---7---7-----|
D------------------0-------7----------|

Guitar 3

e|---------------------| X 3 (Jumps in on the 3rd time)
B|---------------------|
G|----4----7----7----9-|
D|----4----7----7----7-|
A|----2----5----0----7-|
D|--------------0----7-|

Guitar 1

e|----------------------------------------------------------------|
B|----------------------------------------------------------------|
G|-------------7-7-7-7---------7-7-7-7-----------------9/12-12/11-|
D|-0~--0-0-0-0-7-7-7-7-0-0-0-0-7-7-7-7-5-5-5-5-5-5-5-5------------|
A|-0~--0-0-0-0-5-5-5-5-0-0-0-0-5-5-5-5-5-5-5-5-5-5-5-5-7/10-10/9--|
D|-0~--0-0-0-0---------0-0-0-0---------5-5-5-5-5-5-5-5- ----------|
       .......         .......

e|----------------------------------------------------------------|
B|----------------------------------------------------------------|
G|-------------7-7-7-7---------7-7-7-7----------------------------|
D|-----0-0-0-0-7-7-7-7-0-0-0-0-7-7-7-7-5-5-5-5-5-5-5-5-2-2-2-2----|
A|-----0-0-0-0-5-5-5-5-0-0-0-0-5-5-5-5-5-5-5-5-5-5-5-5-2-2-2-2----|
D|-----0-0-0-0---------0-0-0-0---------5-5-5-5-5-5-5-5-2-2-2-2----|
       .......         .......

e|----------------------------------------------------------------|
B|----------------------------------------------------------------|
G|-------------7-7-7-7---------7-7-7-7-----------------9/12-12/11-|
D|-0~--0-0-0-0-7-7-7-7-0-0-0-0-7-7-7-7-5-5-5-5-5-5-5-5------------|
A|-0~--0-0-0-0-5-5-5-5-0-0-0-0-5-5-5-5-5-5-5-5-5-5-5-5-7/10-10/9--|
D|-0~--0-0-0-0---------0-0-0-0---------5-5-5-5-5-5-5-5- ----------|
       .......         .......

e|----------------------------------------|
B|----------------------------------------|
G|-------------7-7-7-7---------7-7-7-7----|
D|-----0-0-0-0-7-7-7-7-0-0-0-0-7-7-7-7-5~-|
A|-----0-0-0-0-5-5-5-5-0-0-0-0-5-5-5-5-5~-|
D|-----0-0-0-0---------0-0-0-0---------5~-|
       .......         .......

Guitar 2

e|-2---2---2---2---2---3---3---3---3---3----| X 2 (Jumps in on the 2nd time)
B|--3---3---3---3---3---3---3---3---3---3---|
G|---2---2---2---2---2---2---2---2---2---2--|
D|------------------------------------------|
A|------------------------------------------|


Important: The song above is NOT stored on the Chordie server. The original song is hosted at www.guitaretab.com. Chordie works as a search engine and provides on-the-fly formatting. Chordie does not index songs against artists'/composers' will. To remove this song please click here.

This song is displayed as text-only. Transposing and tuning is only available for chordpro-songs.

Login - add to songbook

Rating click stars to rate

Layout
Accuracy

SHARE PAGE  




You need to log in to post comments