Guitar Tabs, Chords and Lyrics


Too Lazy To Put A Name   Misc. Unsigned Bands



The sick men of europe
Too lazy to put a name
Shocking Revelation

e|---------------------------------------------------------------------------|
B|---------------------------------------------------------------------------|
G|---------------------------------------------------------------------------|
D|---------------------------------------------------------------------------|
A|--9-9-9-11p9----9-9-9-12p9----9-9-9-10p9----9-9-9-11-----------------------|
E|---------------------------------------------------------------------------|

e|---------------------------------------------------------------------------|
B|---------------------------------------------------------------------------|
G|---------------------------------------------------------------------------|
D|---------------------------------------------------------------------------|
A|--9-9-9-11p9----9-9-9-12p9----9-9-9-10p9--9-7-5----------------------------|
E|------------------------------------------7-5-3----------------------------|
guitar 2-                                   ^ ^ ^

repeat those two lines twice

e|---------------------------------------------------------------------------|
B|---------------------------------------------------------------------------|
G|--2222---------------------------------------------------------------------|
D|--2222---55555-4-----------------------------------------------------------|
A|--0000-x-33333-2-55555-7-88888-7-------------------------------------------|
E|-x---------------33333-5-66666-5-------------------------------------------|x4
guitar 2 keeps playing this^ while the solo kicks in

e|---------------------------------------------------------------------------|
B|---------------------------------------------------------------------------|
G|--2222--5^-5-3-3---2222-------------2222--10h12p10-12^-10-10h12p10---------|
D|--2222--------5-5^-2222---------3---2222--------------------------12-------|
A|--0000-x-----------0000-x----3-5-5--0000-x---------------------------------|
E|--------------------------3-5----------------------------------------------|

e|---------------------------------------------------------------------------|
B|---------------------------------------------------------------------------|
G|-2222----------------------------------------------------------------------|
D|-2222--------9-------------------------------------------------------------|
A|-0000-------7-9------------------------------------------------------------|
E|------7-9-10---------------------------------------------------------------|

then repeat the whole song over again.

TSME 

Important: The song above is NOT stored on the Chordie server. The original song is hosted at www.guitaretab.com. Chordie works as a search engine and provides on-the-fly formatting. Chordie does not index songs against artists'/composers' will. To remove this song please click here.

This song is displayed as text-only. Transposing and tuning is only available for chordpro-songs.

Login - add to songbook

Rating click stars to rate

Layout
Accuracy

SHARE PAGE  




You need to log in to post comments