Guitar Tabs, Chords and Lyrics


Sikreto  Misc. Unsigned Bands

[B#]pagpasok [G]ko, i[A]kaw ang naki[F]ta
[B#]sabay tak[G]bo, n[A]agtago sa barka[F]da
[B#]lumingo[G]n [A]baka maka[F]tsamba,
[B#]'yun pala[G]'y m[A]ay iba kang kas[F]ama


Refrain:
[G]akala k[B]o
[G]bagay ta[B]yo
[G]ang sikre[B]to
G B slide G
na nakatago


chorus:
[E]sabik na sabi[B]k para lang sa ha[C#m]lik
humihina,[A] namamanhid
[E]bumibiga[B]y tuwing kumakaw[C#m]ay
nahihiya,[A] bakit kaya
[E]oh, o[B]h ,oh ,[C#m]oh ,oh [A],oh


verse 2:
[B#]takot akong[G] isipin mong [A]ako ay weir[F]do
[B#]namumutla[G] sa tuwing ik[A]aw ay tumata[F]wa
[B#]torpe nga[G] ako ngun[A]it ako ay ser[F]yoso
[B#]di' ako[G] tapat p[A]ero tayo ang da[F]pat


(repeat refrain)
(repeat chorus)


adlib:

---8-7---8-7---8-7----10-8-7------------------------------|
-------8-----8-----8--------------------------------------|
----------------------------------------------------------|
----------------------------------------------------------|
----------------------------------------------------------|
----------------------------------------------------------|
---8-7---8-7---8-7----10-8-7------------------------------|
-------8-----8-----8--------------------------------------|
----------------------------------------------------------|
----------------------------------------------------------|
----------------------------------------------------------|
----------------------------------------------------------|
---8-7---8-7---8-7----10-8-7-8----------------------------|
-------8-----8-----8--------------------------------------|
----------------------------------------------------------|
----------------------------------------------------------|
----------------------------------------------------------|
----------------------------------------------------------|


bridge:(one strum only)

[G]nakasabay sa [A]jeep, [F]ako'y napais[G]ip
[G]nakatabi [A]ka, t[F]uwang tu[G]wa
[G]sasabihin na s[A]ana, saba[F]y sumigaw, kuya p[G]ara!!!...

(repeat chorus 3x)

E (one strum only)


end:)

Important: The song above is NOT stored on the Chordie server. The original song is hosted at www.guitaretab.com. Chordie works as a search engine and provides on-the-fly formatting. Chordie does not index songs against artists'/composers' will. To remove this song please click here.

Text color:
Chord color:
Chord grids: 
Font size:    
Page size: 

A B C#m E F G
variations - click chord images

Login - add to songbook

Transpose chords

Tuning

Rating click stars to rate

Layout
Accuracy

SHARE PAGE  




You need to log in to post comments