Guitar Tabs, Chords and Lyrics


Sweet Passing Days   Misc. Unsigned Bands



Verse/Intro

This is from their new album: The Good Life. For the most part the song is slow but the 
can be difficult. Listen to the song for timing.

e|-------------------------------------------------------------------------|
B|-------------------------------------------------------------------------|
G|-------------------------------------------------------------------------|
D|--5----------8----------7/11\7-7-7-7-7-7---------------------------------|
A|--5----------8----------7/11\7-7-7-7-7-7---------------------------------|
E|--3-x2-------6--x2------5/9-\5-5-5-5-5-5---------------------------------|

Chorus
e|---------------------------------------------------10p8------------------|
B|------------------------------------11h12p11h12--------------------------|
G|-------------------------------12----------------------------------------|
D|--11~-----------------------6--------------------------------------------|
A|--11~--------5----10---4-------------------------------------------------|
E|--9~~ring---6-----4-------7----------------------------------------------|

Solo
e|--5~let-ring-------------------------------------------------------------|
B|---------------5---------------------------------------------------------|
G|------------------6------------------------------------------------------|
D|----------------------7--8---9-------------------------------------------|
A|--------------------------------7-12-4-----------------------------------|
E|-------------------------------------------12h13p12h13p12/15b------------|

ending
e|----------------------1--------------------------------------------------|
B|---------------------------4/10-end-on-note------------------------------|
G|-------------------------------------------------------------------------|
D|----7----5----3----------------------------------------------------------|
A|----7----5----3----------------------------------------------------------|
E|----5----3----1----------------------------------------------------------|

Song Order:
Verse/Intro x2
Chorus
Verse/Intro x2
Solo
Verse/Intro
Ending


| /  slide up
| \  slide down
| h  hammer-on
| p  pull-off
| ~  vibrato
| +  harmonic
| x  Mute note


Important: The song above is NOT stored on the Chordie server. The original song is hosted at www.guitaretab.com. Chordie works as a search engine and provides on-the-fly formatting. Chordie does not index songs against artists'/composers' will. To remove this song please click here.

This song is displayed as text-only. Transposing and tuning is only available for chordpro-songs.

Login - add to songbook

Rating click stars to rate

Layout
Accuracy

SHARE PAGE  




You need to log in to post comments