Guitar Tabs, Chords and Lyrics


Captain Cool   Misc. Unsigned Bands



AGroll@online.de

www.idyetz.de.tl

Verse

E--------------------------|
B--------------------------|
G---11---------------------|
D---11------9---11---------|
A----9------9---11---------|
E-----------7----9---------|


Chorus

E--------------------------|
B--------------------------|
G--11----------------------|
D--11------9---------------|
A---9------9---------------|


Important: The song above is NOT stored on the Chordie server. The original song is hosted at www.guitaretab.com. Chordie works as a search engine and provides on-the-fly formatting. Chordie does not index songs against artists'/composers' will. To remove this song please click here.

This song is displayed as text-only. Transposing and tuning is only available for chordpro-songs.

Login - add to songbook

Rating click stars to rate

Layout
Accuracy

SHARE PAGE  




You need to log in to post comments