Guitar Tabs, Chords and Lyrics


Eye For An Eye   Misc. Unsigned Bands



Intro:

E|---------------------------------------------------------------|
B|---------------------------------------------------------------|
G|---------------------------------------------------------------|
D|---------------------------------------------------------------|
A|---------------------------------------------------------------|
E|-0h12-0h15-0h14-0h12-0h15--0h12-0h15-0h14-0h12-0h14--0h12-0h15-|

E|--------------------------------------------------------------|
B|--------------------------------------------------------------|
G|--------------------------------------------------------------|
D|--------------------------------------------------------------|
A|--------------------------------------------------------------|
E|-0h14-0h12-0h15---0-15-14-12-12-------------------------------|

Verse:

E|--------------------------------------------------------------|
B|--------------------------------------------------------------|
G|--------------------------------------------------------------|
D|--------------------------------------------------------------|
A|---2--2--2-2-2----5--5--5-5-5-----4--4--4-4-4----7--7--7-7-7--|
E|---0--0--0-0-0----3--3--3-3-3-----2--2--2-2-2----5--5--5-5-5--|

Chorus:

E|--------------------------------------------------------------|
B|--------------------------------------------------------------|
G|--------------------------------------------------------------|
D|------------5--5-5-5------------7--7-7-7----------------------|
A|---2--2-2---3--3-3-3---5--5-5---5--5-5-5----------------------|
E|---0--0-0--------------3--3-3---------------------------------|

Bridge:

E|--------------------------------------------------------------|
B|--------------------------------------------------------------|
G|--------------------------------------------------------------|
D|--------------------------------------------------------------|
A|--------------------------------------------------------------|
E|--0---3--0----7--5--0----3--0--7-5-3--0----0h7-0--7-5-0--3-0--|

Song Order:
Intro x2
Verse x4
Chorus x4
Intro x2
Verse x4
Chorus x4
Bridge x1


Important: The song above is NOT stored on the Chordie server. The original song is hosted at www.guitaretab.com. Chordie works as a search engine and provides on-the-fly formatting. Chordie does not index songs against artists'/composers' will. To remove this song please click here.

This song is displayed as text-only. Transposing and tuning is only available for chordpro-songs.

Login - add to songbook

Rating click stars to rate

Layout
Accuracy

SHARE PAGE  




You need to log in to post comments