Guitar Tabs, Chords and Lyrics


2020 Slash   Misc. Unsigned Bands



this there brand-new song 20/20 slash or Chump. Freddi wrote this in 2005 but has added 
it and only just decided to release it for Method 68.

Tuning: Drop D

Intro

[---333-000-333-222--333-000-333-2~--]
[---333-111-333-333--333-111-333-3~--]
[---000-000-000-222--000-000-000-2~--]
[------------------------------------]
[------------------------------------]
[------------------------------------]

[--------------x----------------------]
[--------------7----------------------]
[-------5-------------5---------------]
[---55x-5-5555-7--555-5-55-53v-8v-----]
[---55x-3-5557-5--555-3-55-33v-8v-----]
[---55x---5555----555---55-53v-8v-----]x2

Verse

[---------------------------------------------------------------]
[---------------------------------------------------------------]
[---------------------------------------------------------------]
[---5-5-10--10-5-5-12--12-5-5-10--10-5-5-3v-3/8v~/--------------]
[---555-101010-555-121212-555-101010-555-3v33/8v~/--------------]
[---555-101010-555-121212-555-101010-555-3v33/8v~/(pick slide)--]
 "You're a chump..."

[---33333333----------333333333---------33333333----------33333333---------]
[---33333333-11111111-333333333-777777--33333333-11111111-33333333---------]
[---00000000-00000000-000000000-777777--00000000-00000000-00000000----333~-]
[------------22222222-----------777777-----------22222222----------333333~-]
[---55555555-33333333-555555555-555555--55555555-33333333-55555555-333111~-]
[---55555555----------555555555---------55555555----------55555555-333-----]
 "You think that..."

(Each 2 lines change that rhythm)

Chorus

[--------------------------]
[--------------------------]
[--------------------------]
[---------44444------------]
[---22222-22222-77777-542--]
[---22222-------77777-542--]x6

Interlude

[--------------------------------------------]
[--------------------------------------------]
[--------------------------------------0-----]
[--------------------------------------------]
[---2v~/4v~/5555555x77777/------------/-5v~--]
[---2v~/4v~/5555555x77777/(pick slide)/-5v~--]

Solo

[---------------68(8)6------------------------------------------]
[--------6v8/6/8------86868/6-----------------------------------]
[-----357--------------------7v-753-353v-----353----------------]
[---35-----------------------------5----5v35----53--------------]
[-------------------------------------------------53-5(6)53-----]
[----------------------------------------------------------85v--]

(it is 85v because of drop d if it was standard you would play 63v)

Outro

[----------------------------]
[----------------------------]
[----------------------------]
[----5-5-5-------------------]
[---5353535v/------------~---]
[---5-5-5-5v/(pick slide)~---]

You're a chump and you know you are,
drivin round in your flashy car,
you really think that you are rich,
I'm gonna change that you dirty b****

You may have been around the world,
you may have seen all the girls,
i'll tell you somethin,
you can't get her,

You're a chump and you know you are,
drivin round in your flashy car,
you really think that you are rich,
I'm gonna change that you dirty b****

You may have been around the world,
you may have seen all the girls,
i'll tell you somethin,
you can't get her,

You're a chump and you know you are,
drivin round in your flashy car,
you really think that you are rich,
I'm gonna change that you dirty b****

You may have been around the world,
you may have seen all the girls,
i'll tell you somethin,
you can't get her,




Important: The song above is NOT stored on the Chordie server. The original song is hosted at www.guitaretab.com. Chordie works as a search engine and provides on-the-fly formatting. Chordie does not index songs against artists'/composers' will. To remove this song please click here.

This song is displayed as text-only. Transposing and tuning is only available for chordpro-songs.

Login - add to songbook

Rating click stars to rate

Layout
Accuracy

SHARE PAGE  




You need to log in to post comments