Guitar Tabs, Chords and Lyrics


Conforming To Non Conformity   Misc. Unsigned Bands








Conforming to non conformity - By Eargasm

Gtr I (E A D G B E) - 'Nathan's Guitar'

  Q=180
  Gtr I
  PM--------|      PM--------|
|----------------|----------------|
|----------------|----------------|
|-------------5--|-------------5--|
|-------------5--|-------------5--|
|-7-7-7-7-7-7-3--|-7-7-7-7-7-7-3--|
|-5-5-5-5-5-5----|-5-5-5-5-5-5----|
 In the city       Tight black jeans
outside the
church...

  PM--------|      PM--------|
|----------------|-----------------------------|
|----------------|-----------------------------|
|-------------5--|-------------5--------(5)----|
|-------------5--|-------------5--------(5)----|
|-7-7-7-7-7-7-3--|-7-7-7-7-7-7-3--------(3)----|
|-5-5-5-5-5-5----|-5-5-5-5-5-5-----------------|
		   Who all just by pure chance are all dressed 
                   exactly like him, coz hes

  Q=120
|---------------------------------------------------------|
|---------------------------------------------------------|
|---------------7-7-7-7-7-7-7---------------5-5-5-5-5-5-5-|
|-5-5-5-5-5-5-5-7-7-7-7-7-7-7-7-7-7-7-7-7-7-5-5-5-5-5-5-5-|
|-5-5-5-5-5-5-5-5-5-5-5-5-5-5-7-7-7-7-7-7-7-3-3-3-3-3-3-3-|
|-3-3-3-3-3-3-3---------------5-5-5-5-5-5-5---------------|
 With his people, hes part of the scene...

|-------------------------------------------|-----------------------------|
|-------------------------------------------|-----------------------------|
|---------------7-7-7-7-7-7-7----------5----|---------------7-7-7-7-7-7-7-|
|-5-5-5-5-5-5-5-7-7-7-7-7-7-7-----7----5----|-5-5-5-5-5-5-5-7-7-7-7-7-7-7-|
|-5-5-5-5-5-5-5-5-5-5-5-5-5-5-----7----3----|-5-5-5-5-5-5-5-5-5-5-5-5-5-5-|
|-3-3-3-3-3-3-3-------------------5---------|-3-3-3-3-3-3-3---------------|
Does he sound like hes got problems...        happy families middle class and white

                             4x                                  4x
||---------------------------||-||-------------------------------||-|
||o-------------------------o||-||o-----------------------------o||-|
||--------5-5-5-7-7-6-6-6-6--||-||----------------6-6-6-6-6-6-6--||-|
||--6-6-6-5-5-5-7-7-6-6-6-6--||-||--6-6-6-6-6-6-6-6-6-6-6-6-6-6--||-|
||o-6-6-6-3-3-3-5-5-4-4-4-4-o||-||o-6-6-6-6-6-6-6-4-4-4-4-4-4-4-o||-|
||--4-4-4--------------------||-||--4-4-4-4-4-4-4----------------||-|
				    Thinks Hes a non conformist...
				
|-------------------------------|--------------------------------|
|-------------------------------|--------------------------------|
|-------------------------------|-6-6-6-6-6-6-6-6-6-6-6-6-6-6-6--|
|-6-6-6-6-6-6-6-6-6-6-6-6-6-6-6-|-6-6-6-6-6-6-6-6-6-6-6-6-6-6-6--|
|-6-6-6-6-6-6-6-6-6-6-6-6-6-6-6-|-4-4-4-4-4-4-4-4-4-4-4-4-4-4-4--|
|-4-4-4-4-4-4-4-4-4-4-4-4-4-4-4-|--------------------------------|
 Is he a non conformist?	  a fucking non conformist

|-----------------------------|
|-----------------------------|
|---------------6-6-6-6-6-6-6-|
|-6-6-6-6-6-6-6-6-6-6-6-6-6-6-|
|-6-6-6-6-6-6-6-4-4-4-4-4-4-4-|
|-4-4-4-4-4-4-4---------------|
 Well hes a non conformist just like

                         5x
||-----------------------||-----------------------------|
||o---------------------o||-----------------------------|
||-----------------------||-----------------------------|
||--5-5-5-5---6-6-6-6----||-5-5-5-5---8-8-8-8-8-8-8-8---|
||o-5-5-5-5---6-6-6-6---o||-5-5-5-5---8-8-8-8-8-8-8-8---|
||--3-3-3-3---4-4-4-4----||-3-3-3-3---6-6-6-6-6-6-6-6---|
 everyone else...	    ...what a tradgedy

                                Q=180
                                PM------|
                             4x
||---------------------------||----------------|
||o-------------------------o||----------------|
||--------5-5-5-7-7-6-6-6-6--||-------------7--|
||--6-6-6-5-5-5-7-7-6-6-6-6--||-------------7--|
||o-6-6-6-3-3-3-5-5-4-4-4-4-o||-9-9-9-9-9-9-5--|
||--4-4-4--------------------||-7-7-7-7-7-7----|
				He goes home and hangs himself

  PM------|        PM------|        PM------|
|----------------|----------------|------------------|
|----------------|----------------|------------------|
|-------------7--|-------------7--|------------------|
|-------------7--|-------------7--|-7-7-7-7-7-7-9----|
|-9-9-9-9-9-9-5--|-9-9-9-9-9-9-5--|-5-5-5-5-5-5-9----|
|-7-7-7-7-7-7----|-7-7-7-7-7-7----|-------------7----|
bedroom fan...		           can't you see he wants to die.

Tablature Legend
----------------
 
 /\  - slide into or out of (from/to "nowhere")
 PM  - palm muting
 x   - on rhythm slash represents muted slash
 o   - on rhythm slash represents single note slash

Misc Legend
-----------
 |  - bar
||  - double bar
||o - repeat start
o|| - repeat end
*|  - double bar (ending)


Important: The song above is NOT stored on the Chordie server. The original song is hosted at www.guitaretab.com. Chordie works as a search engine and provides on-the-fly formatting. Chordie does not index songs against artists'/composers' will. To remove this song please click here.

This song is displayed as text-only. Transposing and tuning is only available for chordpro-songs.

Login - add to songbook

Rating click stars to rate

Layout
Accuracy

SHARE PAGE  




You need to log in to post comments