Guitar Tabs, Chords and Lyrics


Its Fun To Play With Knives   Misc. Unsigned Bands



It's Fun To Play With Knives

Ins: 
       Guitar 1 (Lead)(Adam)
       Guitar 2 (Rhythm)(Austin)

1. Intro
   Guitar 1
  xxxxxxxxxxxx  xxxxxxxxxxxx  xxxxxxxxxxxx  xxxxxxxxxxxx  xxxxxxxxxxxx
|--------------------------------------------------------------------------|
|--------------------------------------------------------------------------|
|--------------------------------------------------------------------------|
|22222222222220222222222222202222222222222022222222222220222222222222222222|
|00000000000000000000000000000000000000000000000000000000000000000000000000|

   Guitar 2
|--------------------------------------------------------------------------|
|--------------------------------------------------------------------------|
|2-----------22-------------22------------22------------22-----------------|
|2-----------22-------------22------------22------------22-----------------|
|0-----------00-------------00------------00------------00-----------------|

    Guitar 1(cont.)
|-----------------------------------|
|-----------------------------------|
|-----------------------------------|
|~~225972259722597320320225973203202|
|~~003750037500375220320003753203200|


we are still writing the song and will get back to you when it is complete.
:)

    Guitar 2(cont.)
|----------------------------------|
|----------------------------------|
|----------------------------------|
|--222222222222222------22222222---|
|--000000000000000------00000000---|

2.  Verse 1
    Guitar 1
|-----------------------------------|
|-----------------------------------|
|-----------------------------------|
|00000000333333335555555555555555532|
|00000000333333335555555555555555532|

    Guitar 2
|-----------------------------------|
|-----------------------------------|
|-----------------------------------|
|0-0-0-0-3-3-3-3-5-5-5-5-5-5-5-5-3-0|
|0-0-0-0-3-3-3-3-5-5-5-5-5-5-5-5-3-0|

3.  Chorus
    Guitar 1
|--------------------------------------------------------------------------|
|--------------------------------------------------------------------------|
|--------------------------------------------------------------------------|
|--------02--------02--------02-------(slide)------------------------------|
|--------02--------02--------02-------(slide)000000002222222233333333555555|

    Guitar 2
|-------------------------------------(slide)------------------------------|
|--------------------------------------------------------------------------|
|--------------------------------------------------------------------------|
|--------------------------------------------------------------------------|
|-------------------------------------------0~~~~~~~2~~~~~~~3~~~~~~~5~~~~~~|

    Guitar 1(cont.)       =11            =12
|------------------------------------------------------------|
|------------------------------------------------------------|
|------------------------------------------------------------|
|------------------------------------------------------------|
|55777777778888888811111111111111111212121212121212(F. Slide)|

    Guitar 2(cont.)
|-----------------------------------------------------------|
|-----------------------------------------------------------|
|-----------------------------------------------------------|
|-----------------------------------------------------------|


Important: The song above is NOT stored on the Chordie server. The original song is hosted at www.guitaretab.com. Chordie works as a search engine and provides on-the-fly formatting. Chordie does not index songs against artists'/composers' will. To remove this song please click here.

This song is displayed as text-only. Transposing and tuning is only available for chordpro-songs.

Login - add to songbook

Rating click stars to rate

Layout
Accuracy

SHARE PAGE  




You need to log in to post comments