Guitar Tabs, Chords and Lyrics


Couldve Been   Misc. Unsigned Bands



Could've Been
Silent Sounds
Guitar-Steven
Drums-Chad
Tuning Standard

Intro
----------------------------------------------------------------------------|
----0-------0-------------0------0------------------------0-------0---------|
-----0-------0-------------0------0------------------------0-------0--------|
------5~------5\4-4/5-------5------5\4-4/5-5/7~-7\5~-5------5~------5\4-4/5-|
----------------------------------------------------------------------------|
--0-------0-------------0------0------------------------0-------0-----------|

-----------------|-----3-----|
-----------------|----3-3----|
-----------------|---0---0---| x4
5555555555555-0--|--------0--|
-----------------|-----------|
-----------------|-3---------|

Verse
------3------------3p2----------------------------|
-----3-3--------3-3---3--------3-1-0------3-1-0---|
----0---0------2-2-----2------0-----0----0-----0--| x4
-------------0---------------2-------2-2--------2-|
----------------------------3---------3-----------|
--3-----------------------------------------------|

Pre Chorus
-----7----------3p2-------------------------------|
-----8-------3-3---3--------3-1-0-----3-1-0-------|
----9-9-----2-2-----2------0-----0---0-----0------| x2
---9---9---0--------------3-------2-2-------2-----|
--7----------------------3---------3--------------|
--------------------------------------------------|
  After you play the pre chorus twice, on the second time after you end
play this

-0-0-000-0-0000-0-0-00-0-00-|
-1-1-111-1-1111-3-3-11-0-11-|
-0-0-000-0-0000-0-0-00-0-00-|
-2-2-222-2-2222-2-2-22-2-22-|
-3-3-333-3-3333-3-3-33-3-33-|
----------------------------|

Chorus
-----3-33---3---0000-22-2-3202----2/7-7-7777---0000-00-0-0000-|
-----3-33---3---3333-33-3-3333----2/7-8-8878---0000-11-1-3101-|
-----0-00---0---0000-22-2-2222----2/7-9-9999---0000-00-0-0000-| x2
-0---0-00-0-0---0000-00-0-0000----2/7-9-9999---2222-22-2-2222-|
-2--------2-----------------------2/7-7-7777---3333-33-3-3333-|
-3--------3---------------------------------------------------|

Verse x2
Pre chorus x2
Chorus x2
Intrelude
-----------------------------------------------------3----5----7----3-|
-------7-7--8-8--5-5------------7-7--8-8--5-5--------3----7----8----5-|
--4-4----------------------4-4-----------------------4----7----9----5-|
-----------------------------------------------------5---7----9----5--|
------5-5--7-7--3-3--3-0-------5-5--7-7--3-3--3-0---5---5----7----3---|
-3-3----------------------3-3----------------------3------------------|

---3----5----7------------------------|
---3----7----8-----3-1-0-----3-1-0----|
---4----7----9----0-----0---0-----0---|
---5---7----9----2-------2-2-------2--|
--5---5----7----3---------3-----------|
-3------------------------------------|

-0-0-000-0-0000-0-0-00-0-00-|
-1-1-111-1-1111-3-3-11-0-11-|
-0-0-000-0-0000-0-0-00-0-00-|
-2-2-222-2-2222-2-2-22-2-22-|
-3-3-333-3-3333-3-3-33-3-33-|
----------------------------|

Chorus x4
Verse x4
On the fourth time play this instead>>
------3------------3p2-------------------------------3-|
-----3-3--------3-3---3--------3-1-0------3-1-0------3-|
----0---0------2-2-----2------0-----0----0-----0-----0-|
-------------0---------------2-------2-2--------2----0-|
----------------------------3---------3----------3---2-|
--3-----------------------------------------------0--3-|

That's it


Important: The song above is NOT stored on the Chordie server. The original song is hosted at www.guitaretab.com. Chordie works as a search engine and provides on-the-fly formatting. Chordie does not index songs against artists'/composers' will. To remove this song please click here.

This song is displayed as text-only. Transposing and tuning is only available for chordpro-songs.

Login - add to songbook

Rating click stars to rate

Layout
Accuracy

SHARE PAGE  




You need to log in to post comments