Guitar Tabs, Chords and Lyrics


Youre A Natural   Misc. Unsigned Bands



p = pulloff
/ = slide
h = hammer
~ = let ring


*Guitar 1*

Intro x6
E-----------------------------------------------------------------------|
B-----------------------------------------------------------------------|
G---10-9-10-12-10-9h10-10----10-9-10-12-10-9h10-10----------------------|
D-00--0-0--0--0--0---------88--8-8--8--8--8-----------------------------|
A-----------------------------------------------------------------------|
D-----------------------------------------------------------------------|

*Guitar 2*

Intro x3
E-x--------x--------x--------x----------------------------------------|
B-x--------x--------x--------x----------------------------------------|
G-x--------x--------x--------x----------------------------------------|
D-0~~~-----8~~~-----0~~~-----8~~~-------------------------------------|
A-0~~~-----8~~~-----0~~~-----8~~~-------------------------------------|


Important: The song above is NOT stored on the Chordie server. The original song is hosted at www.guitaretab.com. Chordie works as a search engine and provides on-the-fly formatting. Chordie does not index songs against artists'/composers' will. To remove this song please click here.

This song is displayed as text-only. Transposing and tuning is only available for chordpro-songs.

Login - add to songbook

Rating click stars to rate

Layout
Accuracy

SHARE PAGE  




You need to log in to post comments