Guitar Tabs, Chords and Lyrics


Josh And Kyle   Misc. Unsigned Bands



Recipe for a hurricane-kyle and josh


e-0--15p12-------------------------17p12h17-----13-----13------------|
b-0-------12h14------------------11--------13-16--13-16--------------|
g-2------------12h14-----------12----------------------------------------|
d-2-----------------12-------13------------------------------------------|
a-2-------------------13---14--------------------------------------------|
e-0----------------------14----------------------------------------------|

                                             e--------------------------|
E                                            b--------------------------|
Kyle and Josh were walking down the road     g-1p0----------------------|
                                             d-----2--------------------|
                                             a-------2------------------|
D                                  e----------0---------------|
Holding hands.

Em
They both kissed the toad.

C
their everlasting love was starting to unfold.

plam mute Em
then ther stood a demon standing in the way

Palm mute F5
he pointed at them and told them 'stop being gay.'

D
they cried.

Em
then Josh sacfificed kyle, just get away.

Am                     Dm
kyle dd-ii-ee-dd......yeah.

guitar solo


               t       t        t        t         t        t        t
e-------------23-19p15-23-19p15-23-19p15-23-19p15--24-19p15-24-19p15-24--|
b---24p21h24-------------------------------------------------------------|
g------------------------------------------------------------------------|
d------------------------------------------------------------------------|
a------------------------------------------------------------------------|
e------------------------------------------------------------------------|
        t
e-19p15-24-19p15--15-12----------------------------------------------------|
b-----------------------15-12----------------------------------------------|
g----------------------------14-12-----------------------------------------|
d---------------------------------14-12------------------------------15-17-|
a--------------------------------------14-12--------------------15-17------|
e-------------------------------------------14-12-12-13-14-15-17-----------|
                       /\  full                          .  .  .
                      /  \
e-----------15-18--19/----\-19~~~~~~~----------16-19-----------19-22~~~~~~~--|
b------15-18------------------------------16-19----------19-22---------------|
g-15-17------------------------------16-18----------19-21--------------------|
d----------------------------------------------------------------------------|
a----------------------------------------------------------------------------|
e----------------------------------------------------------------------------|


B                Em....
Josh is a coward



Important: The song above is NOT stored on the Chordie server. The original song is hosted at www.guitaretab.com. Chordie works as a search engine and provides on-the-fly formatting. Chordie does not index songs against artists'/composers' will. To remove this song please click here.

This song is displayed as text-only. Transposing and tuning is only available for chordpro-songs.

Login - add to songbook

Rating click stars to rate

Layout
Accuracy

SHARE PAGE  




You need to log in to post comments