Guitar Tabs, Chords and Lyrics


Gimme Heroin   Misc. Unsigned Bands



Intro/Verse
E|--5-55-5--8-8-7|
B|--6-65-5--9-9-7|
G|--6-66-6--9-9-8|
D|--6-67-7--9-9-9|
A|--4-47-7--7-7-9|
E|-----5-5------7|

Chorus
E|-8-8-5-5-8-8-7-7-|
B|-9-9-5-5-9-9-7-7-|
G|-9-9-6-6-9-9-8-8-|
D|-9-9-7-7-9-9-9-9-|
A|-7-7-7-7-7-7-9-9-|
E|-----5-5-----7-7-|

Post-Chorus
E|----------|
B|----------|
G|-9--11-8--|
D|-9--11-8--|
A|-7--9--6--|
E|----------|

Interlude
E|-------------------|	 E|-------------------|
B|-------------------|	 B|-------------------|
G|-------------------|	 G|---------------9-9-|
D|7-7--6-6--4-4--2-2-|	 D|7-7--6-6--4-4--9-9-|
A|7-7--6-6--4-4--2-2-| 	 A|7-7--6-6--4-4--7-7-|
E|5-5--4-4--2-2--0-0-| 3X E|5-5--4-4--2-2------| 1X

Solo
E|------------------------------------------|
B|------------------------------------------|
G|-6-969-6-6-96-11-9-6-969-6-6-96-6-13-14-11| 
D|------------------------------------------|
A|------------------------------------------|
E|------------------------------------------|
I know the solos a bit off.
E|-------------------------------------------------|
B|-------------------------------------------------|
G|-6-969-6-6-96-11-9-6-969-6-6-96-6-13-14-13-11--11| 
D|-------------------------------------------------|
A|-------------------------------------------------|
E|-------------------------------------------------|




Lyrics:
i'm puttin the hero back in heroin
cuz i'm happier walkin dead
stickin it in
i never grew up and i'm sure i never will
and i'm sure that what i'm sayin is irresponsible
but i'm never havin kids
and i'm never gettin hitched
cuz i'm already married like a scratch to the itch
they tried to tell me in school i'm a thug
i said fuck this piece of shit school
cuz i'm on the drug

gimme heroin
jackin up again
gimme heroin
under my skin
gimme heroin
'cuz i'll never win
so gimme heroin

graduate to I.V. league
steppin up from pills
intentional overdose-
or just for thrills?
everyone is sayin that i'm just bones and skin
but it really is my soul that's coming thread bare and thin
i'm feelin the sickness
i can't hold it down
it's been too long with
but without it i'm down
i don't wanna live cuz i'm fed up with it
but i blame the CIA for importing this shit

gimme heroin
jackin up again
gimme heroin
under my skin
gimme heroin
'cuz i'll never win
so gimme heroin
Social Sin

i feel the warmth of the after glow
a thoudsand years drift by
but i don't know
the land of nod knocks on the door
and offers up just a little more...
H-E-R-O-I-N!

gimme heroin
jackin up again
gimme heroin
under my skin
gimme heroin
'cuz i'll never win
so gimme heroin
evils begin

heroin
jackin' up again
gimme heroin
its under my skin
gimme heroin
'cuz i'll never win


Important: The song above is NOT stored on the Chordie server. The original song is hosted at www.guitaretab.com. Chordie works as a search engine and provides on-the-fly formatting. Chordie does not index songs against artists'/composers' will. To remove this song please click here.

This song is displayed as text-only. Transposing and tuning is only available for chordpro-songs.

Login - add to songbook

Rating click stars to rate

Layout
Accuracy

SHARE PAGE  




You need to log in to post comments