Guitar Tabs, Chords and Lyrics


You Are Ending My Life   Misc. Unsigned Bands



Artist - jew gold diggers
 Song  - you are ending my life
Album  - my love has been declined

intro verse
|------------------------|
|------------------------|
|---------------4---4----|
|-4---4--x-4-0--4---4--0-|
|-4---4--x-4-0--2---2--0-|
|-2---2--x-2-0---------0-|

chorus
|--------------------------|
|--------------------------|
|----------------4-0--4----|
|-4-0--4-0--4-0--4-0--4--0-|
|-4-0--4-0--4-0--2-0--2--0-|


Important: The song above is NOT stored on the Chordie server. The original song is hosted at www.guitaretab.com. Chordie works as a search engine and provides on-the-fly formatting. Chordie does not index songs against artists'/composers' will. To remove this song please click here.

This song is displayed as text-only. Transposing and tuning is only available for chordpro-songs.

Login - add to songbook

Rating click stars to rate

Layout
Accuracy

SHARE PAGE  




You need to log in to post comments