Guitar Tabs, Chords and Lyrics


Kill   Misc. Unsigned Bands



                  Kill
e----------------------------------------------------|
B----------------------------------------------------|
G----------------------------------------------------|
D---------------------------------10-10-10--12-------|
A---10--10-p-10-10- 10-10^-10-10--8--8--8---10-------|
E---8---8--p-8--8---8--8^--8--8----------------------|


KILL KILL KILL

e------------------------------------------------------|
B------------------------------------------------------|
G------------------------------------------------------|
D------------------------------------------------------|
A--12--12----7---7----7--------------------------------|


Important: The song above is NOT stored on the Chordie server. The original song is hosted at www.guitaretab.com. Chordie works as a search engine and provides on-the-fly formatting. Chordie does not index songs against artists'/composers' will. To remove this song please click here.

This song is displayed as text-only. Transposing and tuning is only available for chordpro-songs.

Login - add to songbook

Rating click stars to rate

Layout
Accuracy

SHARE PAGE  




You need to log in to post comments