Guitar Tabs, Chords and Lyrics


Fliers   Misc. Unsigned Bands



This is my band so its right
-Jake burtonzombie02@yahoo.com

e-19-19-18-18-17-17-16-16--------|
b---0--0--0--0--0--0--0--0-------|
g--------------------------------|
d--------------------------------|      x2
a--------------------------------|
e--------------------------------|

e---5---5-----3----------------------------|
b---5---5-----3----------------------------|
g---6---6-----4----------------------------|
d---7---7-----5------------------0--0------|
a---7---7-----5------------------0--0------|


Important: The song above is NOT stored on the Chordie server. The original song is hosted at www.guitaretab.com. Chordie works as a search engine and provides on-the-fly formatting. Chordie does not index songs against artists'/composers' will. To remove this song please click here.

This song is displayed as text-only. Transposing and tuning is only available for chordpro-songs.

Login - add to songbook

Rating click stars to rate

Layout
Accuracy

SHARE PAGE  




You need to log in to post comments