Queen Of Tarts

Misc. Unsigned Bands

 GF#/GEmD
 Everybody loves you but maybe I don't
 CEmD
They all take a piece of you but baby I wont
 GF#/GEmD
 People that you look at you give them a smile
 CEmD
You laugh to establish it will take a while

VERSE 2
(same as Verse 1)
Wait, anticipate and don't be hasty
Even though you'll probably turn out to hate me
I don't care honey if this seems brash
I felt it's the way to get you back
Felt it's the way to get back at you

 GF#/GEmDCEmD
VERSE 3
(same as verse 1)
Maybe I'm crazy or maybe I'm smart
But life seems dark for the queen of tarts
What you did and what you said it made us think
That sometimes you can push people over the brink

VERSE 4
(same as verse 1)
I don't care if you wanted something else
But don't say it out loud, that's common sense
Now I don't know what to say
Cos even though I hate seeing you this way
I hate seeing anyone this way

 GF#/GEmDCEmD
 G  F#/G  Em  D  C  Em  D..Eb

MIDDLE
(Rhythm guitar plays chords. Lead guitar plays Riff (below))

 EmDCD
 It's not easy when you talk to me it makes me want to sigh
 EmDCD
 It's been ages but I still laughed at you when you went to cry.
 EmB
 For an hour I sat
 EmBBsus4B
 Smiling like a Cheshire cat
 EmBBb
 Who's more foolish me or you?   
 ABb
 Keep it in, don't ask for something new.

VERSE 5
(same as verse 1)
Everybody envies you but maybe I don't
You give them a piece of you but baby I won't.
The way they talk the way they smile it's oh so pretty
Darling I can't wait to get out of this city.

End on G.

MIDDLE RIFF

e-----------------------------|--------------------------------------|
B-----------------------------|--------------------------------------|
G-------0---------------------|--------------------------------------|X2
D-----------------------------|--------------------------------------|
A--7--------7\--5-------------|--5---3-------3--5--5--5--6-----------|
E--------------------7--------|--------------------------------------|
e-7---7---7---7---7---7---7---|
B---8---8---8---8---8---8---8-|
G-----------------------------|X 6
D-----------------------------|
A-----------------------------|
E-----------------------------|



A B Bb Bsus4 C D Em F#/G G
variations - click chord images
Transpose chords:
Tuning:
Cool service:
View: Size:
A  A  A
Rating:
Layout:
  • Currently 3.2/5 Stars.
  • 1
  • 2
  • 3
  • 4
  • 5
 
Accuracy:
  • Currently 2.8/5 Stars.
  • 1
  • 2
  • 3
  • 4
  • 5
 
click stars to rate
Chordie recommends:
Get acoustic guitar lessons and electric guitar lessons at JamPlay.com
Songbook:
Login to add this song to your songbook
Support the artist
Preview/buy this song
MSN Music
Why this non-profit ad?

 
login to add comments/video/corrections