Guitar Tabs, Chords and Lyrics


Vulture Of Tomorrows Lies   Misc. Unsigned Bands



This song is insane...complately weird though.

Intro:
e--5-----7p9-----------3--------|
B--7-----------3-2------7-------|
G--7---------2--1-----5-----10--|
D--------------------7------10--|   x3
A----9--------------------------|
E-----9------------0------------|

Verse:
e--------|
B--------|
G--------|
D--17-17-|  x8
A--15-15-|
E--------|

e--5---4-|
B---7--2-|
G--3---4-|  x16
D--------|
A--------|
E--000---|

Chorus:
e----------------------------------------|
B------8p6-------------------------------|
G----------------------------------------|
D--2-0------22-///////--5--9-11-5--2-----|
A--2-1------22-///////--5--9-10-5--3-4p6-|
E--2-2------22///////---7-10-11-5--3-4p6-|
   . .       .

SOLO:
e--2-0-3p7-00---------------|
B--2-5-----90---------------|
G---------------------------|
D--------------10p13--------|
A---------6-----------------|
E--------------------14//12-|

e----------------------|
B----------------------|
G--16b-16b-14b---------|
D----------------------|
A----------------------|
E--------------(12)----|

PLAY THIS PART EXTREMELY FAST! ITS SOOOO HARD TO DO...SO PRACTICE PRACTICE!!!

e----0-12-13-10-16-17---17-16-----17-18-19-20-18-22-23-10-16-20----|
B----7-14---15-16--17-18-(22)-14----16p18--------------------------|
G----7------------------------14--16-----------19---------22-------|
D----7------------------------15-----------0-----------------------|
A-2--5-------------------------------------------------------------|
E--0---------------------------------------------------------------|

SOLO OUTRO:
e--(17)-(18)--22--18--17-19-19-19-|
B----15-19-22--23-19-20-16-19--18-|
G------------23-24-22---20----21--|
D---0-----------------------------|
A---------------------------------|
E---------------------------------|

Chorus:
e----------------------------------------|
B------8p6-------------------------------|
G----------------------------------------|
D--2-0------22-///////--5--9-11-5--2-----|
A--2-1------22-///////--5--9-10-5--3-4p6-|
E--2-2------22///////---7-10-11-5--3-4p6-|
   . .       .

More riffs
e--5555--9p11-----|
B--7777-----------|
G--7777------0-10-|
D--7777-----------|
A-----6-----------|
E----6--------22--|

Outro:
e------------------------------------------|
B------------------------------------------|
G------------------------------------------|
D--11-11-11-11-11-11-11-11-11-11-////////--|
A--11-11-11-11-11-11-11-10-11-11-////////--|
E--11-11-11-11-11-11-11-10-11-13-////////--|


Important: The song above is NOT stored on the Chordie server. The original song is hosted at www.guitaretab.com. Chordie works as a search engine and provides on-the-fly formatting. Chordie does not index songs against artists'/composers' will. To remove this song please click here.

This song is displayed as text-only. Transposing and tuning is only available for chordpro-songs.

Login - add to songbook

Rating click stars to rate

Layout
Accuracy

SHARE PAGE  




You need to log in to post comments