Guitar Tabs, Chords and Lyrics


Ceacelia   Misc. Unsigned Bands



Intro/Chous
-----------------
-----------------
-----------------
-6-66-8-88-333333  x6
-6-66-8-88-333333
-4-44-6-66-111111

Verse 1&2
-----------------
-----------------
6-66-------------
6-66-6-66-333333-  x4
4-44-6-66-333333-
-----4-44-111111-

Break
---------------------
---------------------
-----6-66------------
6-66-6-66-8-88-333333  x4
6-66-4-44-8-88-333333
4-44------6-66-111111

Verse 3 (No Guitar)
Repete Chorus

End chorus
----------------------
----------------------
----------------------
8-88-10-1010-666666--- x4
8-88-10-1010-666666---


Important: The song above is NOT stored on the Chordie server. The original song is hosted at www.guitaretab.com. Chordie works as a search engine and provides on-the-fly formatting. Chordie does not index songs against artists'/composers' will. To remove this song please click here.

This song is displayed as text-only. Transposing and tuning is only available for chordpro-songs.

Login - add to songbook

Rating click stars to rate

Layout
Accuracy

SHARE PAGE  




You need to log in to post comments