Guitar Tabs, Chords and Lyrics


Spastic Colon   Misc. Unsigned Bands



----------------------------------------------------------------------------
			     SPASTIC COLON - Fire On Fay Lane
----------------------------------------------------------------------------
Tabbed by: spaceboxgtrs

Tuning: Dropped D (DADGBe)

I found this band on myspace and they're awesome.
I think this song is played on acoustic, either way
it sounds good on electric too. It's really easy.

Intro/Chorus
e|-------------------------------------------------------------------------|
B|-66666666666-222222222222-333333333333-----3333--------------------------|
G|-77777777777-xxxxxxxxxxxx-444444444444-----3333--------------------------|
D|-77777777777-444444444444-444444444444-----------------------------------|
A|-55555555555-444444444444-222222222222-2222-----44444444-----------------|
D|---------------------------------------2222-----44444444-----------------|

VERSE:
e|------------------------------------------------------------------|
B|-6~-----2~------3~-----3333---------------------------------------|
G|-7~-----2~------4~-----3333---------------------------------------|
D|-7~-----x~------4~------------------------------------------------|
A|-5~-----4~------2~-2222-----44444444------------------------------|
D|-------------------2222-----44444444------------------------------|



BRIDGE:
e|-----------------------------------------------------------------------|
B|-66666666666222222222222333333333333-----3333--------------------------|
G|-77777777777222222222222444444444444-----3333--------------------------|
D|-77777777777xxxxxxxxxxxx444444444444-----------------------------------|
A|-55555555555444444444444222222222222-2222-----44444444-----------------|
D|-------------------------------------2222-----44444444-----------------|

END ON
e|-5--|
B|-6--|
G|-7--|
D|-7--|
A|-5--|
E|-0--|

ORDER:
CHORUS/INTRO
VERSE x4
CHORUS/INTRO x3
VERSE x4
BRIDGE x2
CHORUS/INTRO x7

LEGEND
| /  slide up
| \  slide down
| h  hammer-on
| p  pull-off
| ~  vibrato
| +  harmonic
| x  Mute note
===============================================================================


Important: The song above is NOT stored on the Chordie server. The original song is hosted at www.guitaretab.com. Chordie works as a search engine and provides on-the-fly formatting. Chordie does not index songs against artists'/composers' will. To remove this song please click here.

This song is displayed as text-only. Transposing and tuning is only available for chordpro-songs.

Login - add to songbook

Rating click stars to rate

Layout
Accuracy

SHARE PAGE  




You need to log in to post comments