Guitar Tabs, Chords and Lyrics


When Exs Meet Ohs   Misc. Unsigned Bands



. = palm muted
h = hand slide

Intro:

E|--0--[x6]--0-[x6]--0-[x6]--0-[x6]---|
G|--0--[x6]--0-[x6]--0-[x6]--0-[x6]---|
B|--10-[x6]--5-[x6]--9-[x6]--7-[x6]---|
D|------------------------------------|
A|------------------------------------|
D|------------------------------------|

E|--0--[x6]--0-[x6]--0-[x6]--0---------|
G|--0--[x6]--0-[x6]--0-[x6]--0---------|
B|--10-[x6]--5-[x6]--9-[x6]--7---------|
D|-------------------------------------|
A|-------------------------------------|
D|-------------------------------------|

E|---------0---------0---------0---------0---|
G|---------0---------0---------0---------0---|
B|---------10--------5---------9---------7---|  [2 Times]
D|-------------------------------------------|
A|-------------------------------------------|
D|--0-0-0-0---0-0-0-0---0-0-0-0---0-0-0-0----|
    . . . .   . . . .   . . . .   . . . .

E|--------------------------------|
G|----10--------9-----11-----9----|
B|-------10---9-----9------9------|
D|--------------------------------|
A|--------------------------------|
D|--0------0-----0------0---------|

E|---------------------|
G|---------------------|
B|---------------------|
D|---------------------|
A|---------------------|
D|--0-0-0-0--0-0-0-0---|
    . . . .  . . . .

Verse 1:

E|--------0--------0------------------------------|
G|--------0--------0------------------------------|
B|--------10-------5------------------------------|
D|---------------------13-[x4]--X-[x4]--13-[x4]---| [2 Times]
A|---------------------13-[x4]--X-[x4]--13-[x4]---|
D|--0-0-0----0-0-0-----13-[x4]--X-[x4]--13-[x4]---|
    . . .    . . .

E|----------------------------------------------|
G|----------------------------------------------|
B|-----------------------------------11h10-10---|
D|----------------------------------------------|
A|----------------------------------------------|
D|--0-0-0-0--0-0-0-0--0-0-0-0--0-0-0------------|
    . . . .  . . . .  . . . .  . . .

Chorus:

E|-----------------------|
G|-----------------------|
B|-----------------------|
D|--13-[x12]--12-[x12]---| [2 Times]
A|--13-[x12]--12-[x12]---|
D|--13-[x12]--12-[x12]---|

E|------------         ------------|
G|------------         ------------|
B|------------         ------------|
D|--13-[x4]--- [pause] --13-[x6]---|
A|--13-[x4]---         --13-[x6]---|
D|--13-[x4]---         --13-[x6]---|

E|------------         ------------|
G|------------         ------------|
B|------------         ------------|
D|--12-[x4]--- [pause] --12-[x6]---|
A|--12-[x4]---         --12-[x6]---|
D|--12-[x4]---         --12-[x6]---|

E|------------------------------------------------|
G|------------------------------------------------|
B|------------------------------------------------|
D|--13-[x6]--15-[x6]--12-[x4]--13-[x4]--15-[x4]---|
A|--13-[x6]--15-[x6]--12-[x4]--13-[x4]--15-[x4]---|
D|--13-[x6]--15-[x6]--12-[x4]--13-[x4]--15-[x4]---|

Verse 2:

E|--------0--------0------------------------------|
G|--------0--------0------------------------------|
B|--------10-------5------------------------------|
D|---------------------13-[x4]--X-[x4]--13-[x4]---| [2 Times]
A|---------------------13-[x4]--X-[x4]--13-[x4]---|
D|--0-0-0----0-0-0-----13-[x4]--X-[x4]--13-[x4]---|
    . . .    . . .

E|----------------------------------------------|
G|----------------------------------------------|
B|-----------------------------------11h10-10---|
D|----------------------------------------------|
A|----------------------------------------------|
D|--0-0-0-0--0-0-0-0--0-0-0-0--0-0-0------------|
    . . . .  . . . .  . . . .  . . .

Chorus 2:

E|-----------------------|
G|-----------------------|
B|-----------------------|
D|--13-[x12]--12-[x12]---| [2 Times]
A|--13-[x12]--12-[x12]---|
D|--13-[x12]--12-[x12]---|

E|------------         ------------|
G|------------         ------------|
B|------------         ------------|
D|--13-[x4]--- [pause] --13-[x6]---|
A|--13-[x4]---         --13-[x6]---|
D|--13-[x4]---         --13-[x6]---|

E|------------         ------------|
G|------------         ------------|
B|------------         ------------|
D|--12-[x4]--- [pause] --12-[x6]---|
A|--12-[x4]---         --12-[x6]---|
D|--12-[x4]---         --12-[x6]---|

E|---------------------|
G|---------------------|
B|---------------------|
D|--13-[x6]--15-[x4]---|
A|--13-[x6]--15-[x4]---|
D|--13-[x6]--15-[x4]---|

Breakdown:

E|---------0---------0---------0---------0----|
G|---------0---------0---------0---------0----|
B|---------10--------5---------9---------7----|  [4 Times]
D|--------------------------------------------|
A|--------------------------------------------|
D|--0-0-0-0---0-0-0-0---0-0-0-0---0-0-0-0-----|
    . . . .   . . . .   . . . .   . . . .

Ending Chord:

E|--0---|
G|--0---|
B|--7---|
D|------|
A|------|


Important: The song above is NOT stored on the Chordie server. The original song is hosted at www.guitaretab.com. Chordie works as a search engine and provides on-the-fly formatting. Chordie does not index songs against artists'/composers' will. To remove this song please click here.

This song is displayed as text-only. Transposing and tuning is only available for chordpro-songs.

Login - add to songbook

Rating click stars to rate

Layout
Accuracy

SHARE PAGE  




You need to log in to post comments