Guitar Tabs, Chords and Lyrics


Say You  Misc. Unsigned Bands

-------------------------------------------------------------------------------



-----------------------------------------------------------------------------

c#|---------------| |-------------| |---------7~--|
a#|--3s2-2s3-3s5--| |-3s2-2s3-3s5-| |-3s2-2s3-----|
f#|---------------| |-------------| (pt.2) |-------------|
c#|--3s2-2s3-3s5--| |-3s2-2s3-3s5-| |-3s2-2s3-----|
g#|---------------| |-0---0-------| |-0---0-------|
c#|---------------|x4 |-------------|X3 and then |-------------|(pt.3)
c#|-(0)----------|
a#|--3s2-2s3-3-5-|
f#|--------------| (pt.4)
c#|--3s2-2s3-3-5-|
g#|--0---0-------|
c#|--------------|x3 then play pt.3 and repeat pt.3 and 4 over the lyrics.
[C#5]Say You’ll [F5]love me say you [G#5]will!
[G#5]Stay [F5]forever.
[C#5]Say you’ll [F5]need me save me from [G#5]ill!
[G#5]Love [F5]together.
(best look at tab below)
CHORUS TAB:
    [C#5]            [F5]          [G#5]           [G#5]    [F5]                                             
c#|-------------------------------------------|
a#|-------------------------------------------|
f#|------------------------------------7------|
c#|--6-6-6-6666-x6-6-6-66--7-7-7-7777--7--6---|
g#|--4-4-4-4444-x4-4-4-44--7-7-7-7777--0--4---| HOPE THAT IS CLEAR
c#|--0-0-0-0000-x4-4-4-44h77-7-7-7777--0--4---|


middle 8: (this is confusing but play these chords like your in standard tuning.)

[Amaj]Collect thoughts and [Gmaj]take heed from words.
[Amaj]Kill the virgin kill [Gmaj]the whore.
[Amaj]Take what’s mine and [Gamj]take what’s yours.

play verse again and then...

outro: (thank the lord I've tabbed it!)

c#|--7-5-7-5-3-5-3-5-3-0~0~0~-------|
a#|--5-5-5-5-3-3-3-3-3-3~3~3~-------|
f#|---------------------------------|THATS ALL FOLKS!!
c#|--3-0-4-3-3-2-3-2-3-0------------|
g#|---------------------------------|
c#|---------------------------------|


Slow song played rarely tell if you liked it, and email if you don't understand
the tuning or my general tabbing directions- soon I'll create mp3 and you'll
be able to dance away to this lil' number.

KEY:
| s legato slide
| h hammer-on
| p pull-off
| ~ vibrato
| + harmonic
| x Mute note
| () Ghost note
=============================================================================

Important: The song above is NOT stored on the Chordie server. The original song is hosted at www.guitaretab.com. Chordie works as a search engine and provides on-the-fly formatting. Chordie does not index songs against artists'/composers' will. To remove this song please click here.

Text color:
Chord color:
Chord grids: 
Font size:    
Page size: 

Amaj C#5 F5 G#5 Gmaj
variations - click chord images

Login - add to songbook

Transpose chords

Tuning

Rating click stars to rate

Layout
Accuracy

SHARE PAGE  




You need to log in to post comments