Guitar Tabs, Chords and Lyrics


Na   Misc. Unsigned Bands



this is a new song for ic that i just made up.

guitar 1
|--------------------------------------------------|  x however many
|--------------------------------------------------|
|------6-7--7-7-6--4-4-4---------------------------|
|--4-4--------------------7-6-2--------------------|
|--------------------------------------------------|
|--------------------------------------------------|

guitar 2
|--------------------------------------------------|  x however many
|--------------------------------------------------|
|--------------------------------------------------|
|--------------------------------------------------|
|------4-5--5-5-4-2-2-2----------------------------|
|--2-2-------------------5-4---0-------------------|

both
|--------------------------------------------------|  x however many
|--------------------------------------------------|
|--------------------------------------------------|
|-4---------4--4--4--4-----------------------------|
|-4---------3--3--3--3-----------------------------|


Important: The song above is NOT stored on the Chordie server. The original song is hosted at www.guitaretab.com. Chordie works as a search engine and provides on-the-fly formatting. Chordie does not index songs against artists'/composers' will. To remove this song please click here.

This song is displayed as text-only. Transposing and tuning is only available for chordpro-songs.

Login - add to songbook

Rating click stars to rate

Layout
Accuracy

SHARE PAGE  




You need to log in to post comments