Guitar Tabs, Chords and Lyrics


Im A Believer   Misc. Unsigned Bands



----------------------------------------------------------------------------
		 I'M A BELIEVER - Black Magyk
----------------------------------------------------------------------------
Tabbed by: Evan
Email: guitarhero9961@yahoo.com

Tuning: eBGBGD

Cover of the classic 60's song by the Monkees

  Intro
e|---13-13-12-12-10---------------------------------|
B|---15-15-13-13-12---------------------------------|
G|12-------------12---------------------------------|
B|----------------------6-----6-----6-----6-----6---|
G|------------------5h7---5h7---5h7---5h7---5h7---5-|
D|--------------------------------------------------|

  Verse
e|---------------|
B|---------------|
G|---------------|
B|-8-3-6-8-3-6-4-|
G|-7-2-5-7-2-5-3-|
D|-5-0-3-5-0-3-1-|

  Pre-Chorus
e|--------------------|
B|--------------------|
G|--------------------|
B|-13-8-13-8-13-8-6-8-|
G|-12-7-12-7-12-7-5-7-|
D|-10-5-10-5-10-5-3-5-|

  Chorus
e|-----------------------------------------------------------|
B|-----------------------------------------------------------|
G|-----------------------------------------------------------|
B|-8-6-8-6-8-6-8-6-8-6-3-----6-----6-----6-----6-----6-----6-|
G|-7-5-7-5-7-5-7-5-7-5-2-5h7---5h7---5h7---5h7---5h7---5h7---|
D|-5-3-5-3-5-3-5-3-5-3-0-------------------------------------|

Verse

Pre-Chorus

Chorus

  Solo
e|-----------------------------------------------------------------|
B|-----------------------------------------------------------------|
G|-----------------------------------------------------------------|
B|-----6-----6-----6-----6-----6-----6--------18-------18-------18-|
G|-5h7---5h7---5h7---5h7---5h7---5h7----17h19----17h19----17h19----|
D|-----------------------------------------------------------------|

e|-------------------------------------------------------------------------|
B|-------------------------------------------------------------------------|
G|-------------------------------------------------------------------------|
B|-------18-------18-------18-18-20-20-22-22-23-22-22-20-20-18-18-------18~|
G|-17h19----17h19----17h19----------------------------------------19-19----|
D|-------------------------------------------------------------------------|

Pre-Chorus

Chorus

  Outro                   Guitar I
e|-----------------------------------------|
B|-----------------------------------------|
G|-----------------------------------------|
B|-8-6-4-3-8-6-4-3-4-6-4-3-4-6-4-3-8-6-4-3-|
G|-7-5-3-2-7-5-3-2-3-5-3-2-3-5-3-2-7-5-3-2-|
D|-5-3-1-0-5-3-1-0-1-3-1-0-1-3-1-0-5-3-1-0-|

                          Guitar II
e|-------------------------------------------------------------------------|
B|-------------------------------------------------------------------------|
G|-------------------------------------------------------------------------|
B|-----6-----6-----6-----6-----6-----6-----6-----6-----6-----6-----6-----6-|
G|-5h7---5h7---5h7---5h7---5h7---5h7---5h7---5h7---5h7---5h7---5h7---5h7---|
D|-------------------------------------------------------------------------|

e|-------|
B|-------|
G|-------|
B|-6-4-3-|
G|-5-3-2-|
D|-3-1-0-|

| /  slide up
| \  slide down
| h  hammer-on
| p  pull-off
| ~  vibrato
| +  harmonic
| x  Mute note


Important: The song above is NOT stored on the Chordie server. The original song is hosted at www.guitaretab.com. Chordie works as a search engine and provides on-the-fly formatting. Chordie does not index songs against artists'/composers' will. To remove this song please click here.

This song is displayed as text-only. Transposing and tuning is only available for chordpro-songs.

Login - add to songbook

Rating click stars to rate

Layout
Accuracy

SHARE PAGE  




You need to log in to post comments