Guitar Tabs, Chords and Lyrics


I Miss New York  Misc. Unsigned Bands

eb|------0-------5-3-2------0--------------0------0-------0-------0--------|


Bb|----3--3---------------3---3----------3--3---3--3----3---3---3---3------|


Gb|--2------2-----------0-------0----2-4------4-------2-------2-------2\4--|

Db|-----------x3------------------x4---------------------------------------|
Ab|------------------------------------------------------------------------|
Eb|------------------------------------------------------------------------|
eb|-----0-------0--------------------|
Bb|---3---3---3--3---0-0-0-0-0-0-----|
Gb|-0-------0--------4/6/7/9\7\6-----|
Db|----------------------------------|
Ab|----------------------------------|
Eb|----------------------------------|
s[D]o you packed up
and left town u[G]nannounced
left a n[Bm]ote by the door
that[A] said you'd gone[G] away
and you [D]said that the girl that we all thought we knew
was just[G] in our heads it was never you and you said
"[Bm]i'm sorry, just[A] don't miss me to[G]night"
w[D]ell this time it's over and you won't cave in
a[G]nd it's sure to be summer till i see you again
so i'll te[Bm]ach myself to n[A]ever let you[G] down
D G Bm A G (intro)

Note: palm mute these chords for second verse:

for every[D] word i wished i'd said
there's ano[G]ther minute where i died instead
as the f[Bm]act that you were g[A]one started to k[G]ill me
c[D]hristmas is coming and you won't be there
to [G]feed me your lines and claim you still care
yeah, i've h[Bm]eard it before so do[A]n't think that i would [G]forget it

we[D]ll this time it's over and you won't cave in
and it's sure[G] to be summer till i see you again
so i'[Bm]ll teach myself to[A] never let you[G] down
n[D]ever forget the lessons you've learned
and i won[G]'t forget all the sparks that we've burned
c[Bm]ounting stars in the back yard, [A]morning came too[G] soon
[D]  [G]  [Bm]   [A]  [G]                            
i[D] miss bright new york nights
and i pr[G]omise that this time we'll be just fine
and [Bm]all i really wa[A]nted was for you to[G] hold me
i[D] miss bright new york nights
and i pr[G]omise that this time we'll be just fine
and [Bm]all i really wa[A]nted was for you to[G] hold me
W[A]on't you hold me?
we[D]ll this time it's [G]over and yo[Bm]u won't cave[A] in
an[D]d it's sure to be [G]summer till[Bm] i see you a[A]gain
so i[D]'ll teach myself t[G]o never [Bm]let you down[G]
ne[D]ver forget[G] the lesson[Bm]s you've lea[A]rned
an[D]d i won't f[G]orget all t[Bm]he sparks th[A]at we've burned
co[D]unting stars in th[G]e back yard[Bm], morning ca[A]me to[G]o soon
D G Bm A G (intro)

Important: The song above is NOT stored on the Chordie server. The original song is hosted at www.guitaretab.com. Chordie works as a search engine and provides on-the-fly formatting. Chordie does not index songs against artists'/composers' will. To remove this song please click here.

Text color:
Chord color:
Chord grids: 
Font size:    
Page size: 

A Bm D G
variations - click chord images

Login - add to songbook

Transpose chords

Tuning

Rating click stars to rate

Layout
Accuracy

SHARE PAGE  




You need to log in to post comments