Guitar Tabs, Chords and Lyrics


We Can Get Together  Misc. Unsigned Bands

---------------------------------------------------------------|   X4


---------------------------------------------------------------|


-------2-------------------------------------------------------|

---------------------------------------------------------------|
----------0----0---------2-----2-------------------------------|
------------0----2--2--0---0------0----------------------------|
[A]There must be [G]something we can [F#]talk about
[A]and maybe [G]there's something here that [F#]we can do
[A]no matter what your [G]friends say, don't [F#]go too far
Bridge:

remember there's [E]just one thing

[E]whenever you come this way
[E]you know I wouldn't get you down
[E]I just like talking to you
Verse 2:

[A]It's raining out[G]side

I shake my s[F#]hoes, downstairs
[A]you never stop d[G]ancing
you don't [F#]make much sense
[A]no matter what your [G]friends say
don't [F#]go too far
Bridge 2:

remember there's [E]just one thing

[E]whenever you come this way
maybe,

Chorus:

[D]we can get together

[A]we can get together
you know I wouldn't [E]get you down
[E]I just like talking to you
maybe,

[D]we can get together

[A]we can get together
(repeat intro riff 4 times until verse 3)
later sometime


you can buckle my shoes


you can pick up my sticks


you can knock on my door

Verse 3:

[A]there must be [G]something we can [F#]talk about

[A]maybe there's [G]something here [F#]we can do
[A]don't go back [G]home, babe
don't [F#]go too far
Bridge 3:

[E]remember there's just one thing

[E]whenever you come this way
[E]maybe,
Chorus 2:

[D]we can get together

[A]we can get together
[E]you know I wouldn't get you down
[E]I just like talking to you
maybe,

[D]we can get together

[A]we can get together
(Repeat intro riff until the *)
later sometime
you can buckle my shoes
you can pick up my sticks
you can knock on my door
you know I walk in the rain
I said it rains in my heart
you ought to be in my shoes
won't you open that door
we can get together
we can get together *

baby, [D]we can get together

[A]we can get together
(repeat intro riff until +)
later sometime
you can buckle my shoes
you can pick up my sticks +

-------------------------------------------------------------|
-------------------------------------------------------------|
------------------------2------------------------------------|
-------------------------------------------------------------|
---------------------------0----0---------2------------------|
-----------------------------0----2--2--0--------0-----------|

why don't you open that door


Ear transcribed by Jack Devlin
Flowers/ Icehouse official website http://www.icehouse-iva.com/

Important: The song above is NOT stored on the Chordie server. The original song is hosted at www.guitaretab.com. Chordie works as a search engine and provides on-the-fly formatting. Chordie does not index songs against artists'/composers' will. To remove this song please click here.

Text color:
Chord color:
Chord grids: 
Font size:    
Page size: 

A D E F# G
variations - click chord images

Login - add to songbook

Transpose chords

Tuning

Rating click stars to rate

Layout
Accuracy

SHARE PAGE  




You need to log in to post comments