Guitar Tabs, Chords and Lyrics


Slice Me   Misc. Unsigned Bands



                  Mr. Cut yourself--Slice me
                   tuning: Drop D

This is a fairly simple song
easy to play, creepy lyrics. Cant really hear them though for all the screaming

  Intro
|---------------------------------------------|
|---------------------------------------------|
|---------------------------------------------|  4x
|-----------------------2-----3-----5---5---6-|
|-----------------------2-----3-----5---5---6-|
|-0-0-0000-0-0-0000-0-0-2-0-0-3-0-0-5-0-5-0-6-|
P.M.. .... . . .... . . . . . . . . . . . . .

 Riff A.
|-------------------------------------------|
|-------------------------------------------|
|-------------------------------------------| 3x
|-------------------------------------------|
|-------------------------------------------|
|-0-0-0-0000-0--0-0-0-0000-0-00000000-0-0-0-|
P.M.. . .... .  . . . .... . ........ . . .


 Riff B.
|-----------------------------------------------------|
|-----------------------------------------------------|
|-----------------------------------------------------|
|---------------------3-------------------------------|
|-----7h9-----3h5p3-5---------------------------------|
|-0-0-----0-0------------0-0-000-0-0-0--0-0-000-0-0-0-|
P.M..     . .            . . ... . .    . . ... . .


(solo)
|----------------------------------------------------------//
|----------------------------------------------------------//
|----------------------------------------------------------// I tried to
|----------------------------------------------------------//space it out
|-----17h19---15--17---12----14~---15~---17~---17h19-17-19-//
|-0-0-------0--------------0-----0-----0-----0-------------//
P.M..       .              .     .     .     .


|--------------------------------------------------------------|
|--------------------------------------------------------------|
|----------------------------T19p15h17T19p15h17----------------|
|-19-18-17-15-17-14h15p14-12--------------------T12p7h9T12p7h9-|
|--------------------------------------------------------------|
|--------------------------------------------------------------|

|-------------------------------------------------------|
|-------------------------------------------------------|
|--------------------------T7p0h5T7p0h5T7p0h5T7p0h5-----|
|-T7p0h5T7p0h5T7p0h5T7p0h5---------------------------2--|
|----------------------------------------------------2--|
|----------------------------------------------------2--|


|---------------------------------------------|
|---------------------------------------------|
|---------------------------------------------|  4x
|-----------------------2-----3-----5---5---6-|
|-----------------------2-----3-----5---5---6-|
|-0-0-0000-0-0-0000-0-0-2-0-0-3-0-0-5-0-5-0-6-|
P.M.. .... . . .... . . . . . . . . . . . . .

|-----------------------------------------------|
|-----------------------------------------------|
|-----------------------------------------------|
|-----------------------------------------------|
|-----------------------------------------------|
|-0-0-0-0000-0--0-0-0-0000-0-0-0-00000000-0-0-0-|
P.M.. . .... .  . . . .... . . . ........ . . .

|-----------/--//
|----------/---//
|---------/----//
|-2-(2)--------//// Pick slide
|-2-(2)--------//
|-2-(2)--------//


P.M. . Palm mute
~  vibrado/bend
h  Hammer on
P  Pulloff
T   tap


Important: The song above is NOT stored on the Chordie server. The original song is hosted at www.guitaretab.com. Chordie works as a search engine and provides on-the-fly formatting. Chordie does not index songs against artists'/composers' will. To remove this song please click here.

This song is displayed as text-only. Transposing and tuning is only available for chordpro-songs.

Login - add to songbook

Rating click stars to rate

Layout
Accuracy

SHARE PAGE  




You need to log in to post comments