Guitar Tabs, Chords and Lyrics


Christine   Misc. Unsigned Bands



Tempo: 160bpm

Intro

|-3---3-3---3-3-3|-0---0-0---0-0-0|     |
|-0---0-0---0-0-0|-0---0-0---0-0-0|     |
|-0---0-0---0-0-0|-0---0-0---0-0-0|     |_ _ Repeat 2 times
|-0---0-0---0-0-0|-2---2-2---2-2-2|     |
|-2---2-2---2-2-2|-2---2-2---2-2-2|     |
|-3---3-3---3-3-3|-0---0-0---0-0-0|     |

|-0---0-0---0-0-0|-2---2-2---2-2-2|     
|-1---1-1---1-1-1|-3---3-3---3-3-3|     
|-2---2-2---2-2-2|-2---2-2---2-2-2|      
|-2---2-2---2-2-2|-0---0-0---0-0-0|     
|-0---0-0---0-0-0|----------------|     
|----------------|----------------|

Verse 1

|---3---3---3---3|---0---0---0---0|     
|---0---0---0---0|---0---0---0---0|     
|---0---0---0---0|---0---0---0---0|     
|---0---0---0---0|---2---2---2---2|     
|---2---2---2---2|---2---2---2---2|     
|---3---3---3---3|---0---0---0---0|    

|---3---3---3---3|---0---0---0---0|     
|---0---0---0---0|---0---0---0---0|     
|---0---0---0---0|---0---0---0---0|     
|---0---0---0---0|---2---2---2---2|     
|---2---2---2---2|---2---2---2---2|     
|---3---3---3---3|---0---0---0---0|      

|---0---0---0---0|---2---2---2---2|     
|---1---1---1---1|---3---3---3---3|     
|---2---2---2---2|---2---2---2---2|      
|---2---2---2---2|---0---0---0---0|     
|---0---0---0---0|----------------|     
|----------------|----------------|

Repeat the Verse 3 times then... 

Post Verse 1

|---3---3---3---3|---3-~~~~~~~~~~-|     
|---0---0---0---0|---0-~~~~~~~~~~-|     
|---0---0---0---0|---0-~~~~~~~~~~-|     
|---0---0---0---0|---0-~~~~~~~~~~-|     
|---2---2---2---2|---2-~~~~~~~~~~-|     
|---3---3---3---3|---3-~~~~~~~~~~-|    

Break/Interlude

|---3---3---0---0|---0---0---3-~~-|     |
|---0---0---2---2|---0---0---0-~~-|     |
|---0---0---2---2|---0---0---0-~~-|     |_ _ Repeat 2 times
|---0---0---2---2|---2---2---0-~~-|     |
|---2---2---0---0|---2---2---2-~~-|     |
|---3---3--------|---0---0---3-~~-|     |

|---0---0---0---0|---0---0---0-~~-|     
|---1---1---0---0|---1---1---0-~~-|     
|---2---2---0---0|---2---2---0-~~-|     
|---2---2---2---2|---2---2---2-~~-|     
|---0---0---2---2|---0---0---2-~~-|     
|-----------0---0|-----------0-~~-|    

|---0---0---3---3|---0---0---0-~~-|     
|---1---1---0---0|---1---1---0-~~-|     
|---2---2---0---0|---2---2---0-~~-|     
|---2---2---0---0|---2---2---2-~~-|     
|---0---0---2---2|---0---0---2-~~-|     
|-----------3---3|-----------0-~~-|    

Pre Verse 2

|-3---3-3---3-3-3|-0---0-0---0-0-0|     |
|-0---0-0---0-0-0|-0---0-0---0-0-0|     |
|-0---0-0---0-0-0|-0---0-0---0-0-0|     |_ _ Repeat 2 times
|-0---0-0---0-0-0|-2---2-2---2-2-2|     |
|-2---2-2---2-2-2|-2---2-2---2-2-2|     |
|-3---3-3---3-3-3|-0---0-0---0-0-0|     |

|-0---0-0---0-0-0|-2---2-2---2-2-2|     
|-1---1-1---1-1-1|-3---3-3---3-3-3|     
|-2---2-2---2-2-2|-2---2-2---2-2-2|      
|-2---2-2---2-2-2|-0---0-0---0-0-0|     
|-0---0-0---0-0-0|----------------|     
|----------------|----------------|

Verse 2

|---3---3---3---3|---0---0---0---0|     
|---0---0---0---0|---0---0---0---0|     
|---0---0---0---0|---0---0---0---0|     
|---0---0---0---0|---2---2---2---2|     
|---2---2---2---2|---2---2---2---2|     
|---3---3---3---3|---0---0---0---0|    

|---3---3---3---3|---0---0---0---0|     
|---0---0---0---0|---0---0---0---0|     
|---0---0---0---0|---0---0---0---0|     
|---0---0---0---0|---2---2---2---2|     
|---2---2---2---2|---2---2---2---2|     
|---3---3---3---3|---0---0---0---0|      

|---0---0---0---0|---2---2---2---2|     
|---1---1---1---1|---3---3---3---3|     
|---2---2---2---2|---2---2---2---2|      
|---2---2---2---2|---0---0---0---0|     
|---0---0---0---0|----------------|     
|----------------|----------------|

Repeat the Verse 3 times then... 

Post Verse 2

|---3---3---3---3|---3-~~~~~~~~~~-|     
|---0---0---0---0|---0-~~~~~~~~~~-|     
|---0---0---0---0|---0-~~~~~~~~~~-|     
|---0---0---0---0|---0-~~~~~~~~~~-|     
|---2---2---2---2|---2-~~~~~~~~~~-|     
|---3---3---3---3|---3-~~~~~~~~~~-|  

Outro

|-3---3-3---3-3-3|-0---0-0---0-0-0|     |
|-0---0-0---0-0-0|-0---0-0---0-0-0|     |
|-0---0-0---0-0-0|-0---0-0---0-0-0|     |_ _ Repeat 5 times 
|-0---0-0---0-0-0|-2---2-2---2-2-2|     |
|-2---2-2---2-2-2|-2---2-2---2-2-2|     |
|-3---3-3---3-3-3|-0---0-0---0-0-0|     |

then ...

|-0---0-0---0-0-0|-2---2-2---2-2-2|---3-~~~~~~~~~~~-|-~~~~~~~~~~~~~~-|
|-1---1-1---1-1-1|-3---3-3---3-3-3|---0-~~~~~~~~~~~-|-~~~~~~~~~~~~~~-|     
|-2---2-2---2-2-2|-2---2-2---2-2-2|---0-~~~~~~~~~~~-|-~~~~~~~~~~~~~~-|      
|-2---2-2---2-2-2|-0---0-0---0-0-0|---0-~~~~~~~~~~~-|-~~~~~~~~~~~~~~-|     
|-0---0-0---0-0-0|----------------|---2-~~~~~~~~~~~-|-~~~~~~~~~~~~~~-|     
|----------------|----------------|---3-~~~~~~~~~~~-|-~~~~~~~~~~~~~~-|

Check out our Bebo Page... www.arsenicband.bebo.com 
Or our MySpace Page...     www.myspace.com/arsenic.band


Important: The song above is NOT stored on the Chordie server. The original song is hosted at www.guitaretab.com. Chordie works as a search engine and provides on-the-fly formatting. Chordie does not index songs against artists'/composers' will. To remove this song please click here.

This song is displayed as text-only. Transposing and tuning is only available for chordpro-songs.

Login - add to songbook

Rating click stars to rate

Layout
Accuracy

SHARE PAGE  




You need to log in to post comments