Guitar Tabs, Chords and Lyrics


Today   Misc. Unsigned Bands



Intro
e -----------------------------------------|
B -----------------------------------------|
G -----------------------------------------|
D -----------------------------------------|
A -4--2--7--11-----------------------------|
E -2--0--5--9------------------------------|    Play 4x in clean, then go to distortion 4X

  Verse
e -----------------------------------------|
B -----------------------------------------|
G -----------------------------------------|
D -----------------------------------------|
A ---4---4---4---4---2--2---5---5----------|
E -2---2---2---2---0---0---3---3-----------|

Chorus
e -----------------------------------------|
B -----------------------------------------|
G -----------------------------------------|
D -----------------------------------------|
A -4--7--6--7--6--0------------------------|


Important: The song above is NOT stored on the Chordie server. The original song is hosted at www.guitaretab.com. Chordie works as a search engine and provides on-the-fly formatting. Chordie does not index songs against artists'/composers' will. To remove this song please click here.

This song is displayed as text-only. Transposing and tuning is only available for chordpro-songs.

Login - add to songbook

Rating click stars to rate

Layout
Accuracy

SHARE PAGE  




You need to log in to post comments