Guitar Tabs, Chords and Lyrics


Sweeping Exercise   Misc. Unsigned Bands



|-------7-10-7----------------------------------------------10-15-12--------|
|------8-------8-------------------8-13-8------------------12--------12-----|
|-----9---------9-----------------9------9----------------12----------12----|
|----9-----------9--------------10--------10-------------12------------12---|
|7-10-------------10-7-10-----10-----------10-------10-14----------------14-|
|-------------------------8-12---------------12-8-12------------------------|

|-------------5-10-5----------|
|------------7-------7--------| *
|-----------7---------7-------|
|----------7-----------7------|
|12-14-5-9--------------9-5-9-| *
|-----------------------------|

|17-13-----------17-13-17-13----------------13-|
|------15------15-----------15------------15---| *
|--------14--14---------------14--------14-----|
|----------15-------------------15-12-15-------|
|----------------------------------------------| *
|----------------------------------------------|
                 t
|----------7-10-15-10-7------------|
|---------9-------------9----------|
|--------9---------------9---------|
|-------9-----------------9--------|
|--7-10--------------------10-7----|
|7-------------------------------7-|

all of this sweeping is part of my song the end of nothingness. all of the  sweeps are 
notes triplets at a 135 tempo.

these are for very experenced players. this is my first tab. if any body has more sweeps 


Important: The song above is NOT stored on the Chordie server. The original song is hosted at www.guitaretab.com. Chordie works as a search engine and provides on-the-fly formatting. Chordie does not index songs against artists'/composers' will. To remove this song please click here.

This song is displayed as text-only. Transposing and tuning is only available for chordpro-songs.

Login - add to songbook

Rating click stars to rate

Layout
Accuracy

SHARE PAGE  




You need to log in to post comments