Guitar Tabs, Chords and Lyrics


Classical   Misc. Unsigned Bands



|-0-------------0---------|
|-------------------------|
|-------------------------|
|----0----0-------0---0---|
|-----0----0-------0---0--|
|-11---11---11--9---9---9-|

|-0---------0-------------|
|-------------------------|
|-------------------------|
|---0---0-----0---0-------|
|----0---0-----0---0------|
|-6---6---6-3---3---3-----|

 Hey this is my first tab so bear with me. now about timing, each note is sinply a
note. so each not egets one beat. use your thumb for the 6th stirng and the 3rd string, your
for the 2nd string and your middle for the 1st string. Oh and Synyster's Shadow is the 


Important: The song above is NOT stored on the Chordie server. The original song is hosted at www.guitaretab.com. Chordie works as a search engine and provides on-the-fly formatting. Chordie does not index songs against artists'/composers' will. To remove this song please click here.

This song is displayed as text-only. Transposing and tuning is only available for chordpro-songs.

Login - add to songbook

Rating click stars to rate

Layout
Accuracy

SHARE PAGE  




You need to log in to post comments