Guitar Tabs, Chords and Lyrics


I Just Need A Little Rnr Rock N Roll   Misc. Unsigned Bands



Song: I just need a little RNR (rock n roll)
played in the key of d,g,a,b,c# (c# i believe is on there)

this is a tab i made just today and it sounds pretty good i 
played it out then tabbed it and put it together but this is
my first tab 
 
#cutline#
Rhythm
e-2---3--3-3---|-2---3--3----------------------------------|
b-3-2-3--3-3---|-3-2-3--3----------------------------------|
g-2-2-0--0-0-2-|-2-2-0--0-2--------------------------------|
D-----0--0-0-2-|-----0--0-2--------------------------------|
A-----0--0-0-0-|-----0--0-0--------------------------------|
E-----3--3-3---|-----3--3----------------------------------|
 this for the 4th

#cutline#
rhythm
e------------|
b-3-2--------|
g-2-2-0--0-2-|8x
D-0---0--0-2-|
A-----x--x-0-|
E-----3--3---|

Lead (starts on 4th time)
e------------|
b------------|
g-7-7--------|4x
D-7-6-5--5-7-|
A-----5--5-7-|
E------------|

#cutline# both guitarists
e-----3----2-2----|-----3-2-2-----------------------|
b-----3----3-3----|-----3-3-3-----------------------|
g-4-4-0----2-2-2--|-4-4-0-2-2-2222222222222---------|
D-4-4-0--------2--|-4-4-0-----2222222222222---------|
A-2-2-0--------0--|-2-2-0-----0000000000000---------|
E-----3-----------|-----3---------------------------|
        this for 4th

rhythm
e-2---3--3---|
b-3-2-3--3---|
g-2-2-0--0-2-|7x
D-----0--0-2-|
A-----0--0-0-|
E-----3--3---|

lead (starts on 3rd time)
e--------------|  |-----------------|
b--------------|  |-----------------|
g--------------|3x|-----------------|
D-7-6~\--------|  |-7-6~\-----------|
A-------5-5-7~-|  |-------5-5/7~~~~-|
E--------------|  |-----------------|
                      4th time

#cutline#
e-----3----2-2---|  |-------10---9--9-----|
b-----3----3-3---|  |-12-12-10---10-10-10-|
g-4-4-0----2-2-2-|4x|-11-11-0----9--9--10-|5x
D-4-4-0--------2-|  |-9--9--0-------------|
A-2-2-0--------0-|  |-------0-------------|
E-----3----------|  |-------10------------|

rhythm for solo
e-2----3-3---|
b-3-2--3-3---|repeat as much as necessary
g-2-2--0-0-2-|
D------0-0-2-|
A------0-0-0-|
E------3-3---|

#cutline#
e-----------------------------------------------=
b------------------------------------10b--------=
g----------------------------------------12-9---=
D-7-6~\--------9b10r-7~-7-6~\----------------11~=
A-------5-5-7~----------------5-5/7~------------=
E-----------------------------------------------=

|---------------------------------------------------------=
|-11b12-11b12----------------3b4r-----------------6b7-6b7-=
|-11b12-11b12-9~--4b5r-4-2-2--------2~~-3-2-0---2---------=
|-------------------------4-------5-----------5-----------=
|---------------------------------------------------------=
|---------------------------------------------------------=

|-----------------------14--------------------------------=
|-------15b16-15b16~~~~---17-14-20b22~-17----20-----20----=
|-8-5~-----------------------------------19~-19b20--19b20-=
|---------------------------------------------------------=
|---------------------------------------------------------=
|---------------------------------------------------------=

|---------------|
|---------------|
|-17~-----------|
|----x

Important: The song above is NOT stored on the Chordie server. The original song is hosted at www.guitaretab.com. Chordie works as a search engine and provides on-the-fly formatting. Chordie does not index songs against artists'/composers' will. To remove this song please click here.

This song is displayed as text-only. Transposing and tuning is only available for chordpro-songs.

Login - add to songbook

Rating click stars to rate

Layout
Accuracy

SHARE PAGE  




You need to log in to post comments