Guitar Tabs, Chords and Lyrics


Im From Dade County   Misc. Unsigned Bands



----------------------------------------------------------------------------
			I'm from Dade County - DJ Khaled
----------------------------------------------------------------------------
Tabbed by: Bryce
Email:genma_is_god_aaf@yahoo.com
DJ Khaled site: http://www.myspace.com/djkhaled
Tuning: standard


  Intro
e|-------------|
A|-------------|
D|-------------|
G|-------3--5--|
B|-5--6--1--3--|
E|-3--4--------|

verse
   <  <  <  <  
e|-------------|
A|-------------|
D|-------------|
G|-------------|
B|-------1--3--|
E|-3--4--------|
these are volume knob swells

chorus

e|---------|
A|---------|
B|-----3-5-|
G|-5-6-3-5-|
D|-5-6-1-3-|


Important: The song above is NOT stored on the Chordie server. The original song is hosted at www.guitaretab.com. Chordie works as a search engine and provides on-the-fly formatting. Chordie does not index songs against artists'/composers' will. To remove this song please click here.

This song is displayed as text-only. Transposing and tuning is only available for chordpro-songs.

Login - add to songbook

Rating click stars to rate

Layout
Accuracy

SHARE PAGE  




You need to log in to post comments