Guitar Tabs, Chords and Lyrics


Katie V Your For Me   Misc. Unsigned Bands



-----------------------------------|
-----------------------------------|
--5---------------3----------------|
--6---------------4----------------|
--7-----7h9p7-----5----------------|
--5-5/7-7-----7\3-3----------------|


----x---------x---x-----5-------------|
----x---------x-4-x-----6-------------|
-5--x-7-----3-x-5-x-----7-------------|
-6----8-----4---6---------------------|
-7----9-----5-------------------------|


Important: The song above is NOT stored on the Chordie server. The original song is hosted at www.guitaretab.com. Chordie works as a search engine and provides on-the-fly formatting. Chordie does not index songs against artists'/composers' will. To remove this song please click here.

This song is displayed as text-only. Transposing and tuning is only available for chordpro-songs.

Login - add to songbook

Rating click stars to rate

Layout
Accuracy

SHARE PAGE  




You need to log in to post comments