Guitar Tabs, Chords and Lyrics


Put Me To Sleep  Misc. Your Songs

    [E]  [E]  [E]  [E]  [E]  [E]  [E]  [E]      [E]  [E]  [E]  [E]  [E]  [E]  [E]  [E]      [E]  [E]  [E]  [E]  [E]  [E]  [E]  [E]                                    
e|-------------------|----------0--------|----------0--------|
B|----------3--------|----------------3--|--------0---0------|
G|------0-----0---0--|------2-----2------|----0h2-------0h2--|
D|----4---4-----4----|----4---4-----4----|-------------------|
A|--2----------------|--0----------------|-------------------|
E|-------------------|-------------------|--3----------------|

(cont'd)
    [E]  [E]  [E]  [E]  [E]  [E]  [E]  [E]                                                                            
e|-------------------|
B|------2-3p2--------|
G|----3-------3------|
D|--4-----------4-0--|
A|-------------------|
E|-------------------|

(cont'd)
    [E]  [E]  [E]  [E]  [E]  [E]  [E]  [E]      [E]  [E]  [E]  [E]  [E]  [E]  [E]  [E]                                                        
e|-------------------|-------------------|
B|-------------------|----------0---0-3--|
G|-------------------|--------0---0------|
D|--------0-2p0------|--4---4------------|
A|----2h3-------3-2--|----2--------------|
E|--0----------------|-------------------|(rest for two measures)

(then...)


Main Riff:
Q E E E s s Q E E E s s
e|-----------------|-------------------|
B|-----------------|-------------------|
G|-----------------|-------------------|
D|--2-------2------|--3-------3----2*--|
A|--2-------2p0----|--3-------3-/5-----|
E|--0---0-0-----0--|--1---1-1----------|(2x)

PM * * * *
(then...)


(at some point comes a solo backed by the riff below)
Solo: *you could use bends for the slides... it sounds better for me... =)
E E E E E E E E h+q E E E E E E E E E E
e|-------------------|---------|---------------------|
B|-------------------|---------|---------------------|
G|--------------7-9~~|-----7---|--7------------------|
D|----5-7p5-7s9------|-------9-|----9-7-9p7----7-----|
A|--7----------------|---------|------------10---9~--|
E|-------------------|---------|---------------------|

(cont'd)
E E E E E E E E E E h+e E E E E E E E E E
e|-------------------|-------------|-----------------------|
B|-------------------|-------------|------8----8-----------|
G|-------------------|-------------|--7b9---b9---b9r7-9~~--|
D|----------7---7----|--7s9~----9--|-----------------------|
A|--7-5-7s9---9---9--|-------------|-----------------------|
E|-------------------|-------------|-----------------------|

PM * *
(cont'd)
    [s]  [s]   [s]  [s]   [s]  [s]   [s]  [s]   [s]  [s]  [s]  [s]  [s]  [s]  [s]  [s]      [s]  [s]  [s]  [s]  [s]  [s]   [s]   [s]  [B]                                
e|------10p7----7------------------------|-------------------------|
B|----8------10---10-8-10-8-7-8-7---7----|--------------------12~--|
G|--9-----------------------------9---9--|--7-9-7---7s9-11h12------|
D|---------------------------------------|--------9----------------|
A|---------------------------------------|-------------------------|
E|---------------------------------------|-------------------------|

(cont'd)
E E E E E E E E E E E E E E q~
e|--------------------------|-----------------------|
B|--12p10-12p10-------------|-----------------------|
G|--------------12p11p9-----|-----------------------|
D|----------------------12--|--10p9-10p9------------|
A|--------------------------|------------10-9-------|
E|--------------------------|-----------------12~---|



(Rhythm for the above solo)
Q E E Q E E Q E E E E E E Q E E E E E E q q q q
e|---------------------|-------------------|-------------------|-----------|
B|---------------------|-------------------|-------------------|-----------|
G|---------------------|----------4---5----|-------------------|--4-4-4-4--|
D|--2------------------|--5----------------|--5-----------4-5--|--4-4-4-4--|
A|--2---------/7*------|--3---3-3---3------|--5-------5-7------|--2-2-2-2--|
E|--0---0-0-------0-0--|----------------0--|--3---3-3----------|-----------|2x

PM * * * * * * * * * * * * * *
(then...)
Q E E E s s Q E E E s s
e|-----------------|-------------------|
B|-----------------|-------------------|
G|-----------------|-------------------|
D|--2-------2------|--3-------3----2*--|
A|--2-------2p0----|--3-------3-/5-----|
E|--0---0-0-----0--|--1---1-1----------|(2x)

PM * * * *


(afterwards...)
Do Main Riff and Then:
Ending:
s s s s s s s s s s s s s s s s W~~
e|-----------------------------------|---------|
B|-----------------------------------|---------|
G|-----------------------------------|--4~-----|
D|-----------------------------------|--2~-----|
A|--2p0---0---------2p0---0----------|--2~-----|
E|------3---3p2-0h2-----3---3p2-0h2--|--0~-----|

PM * * * * * * * * * *

(there! updated complete with duration notes!)

Important: The song above is NOT stored on the Chordie server. The original song is hosted at www.guitaretab.com. Chordie works as a search engine and provides on-the-fly formatting. Chordie does not index songs against artists'/composers' will. To remove this song please click here.

Text color:
Chord color:
Chord grids: 
Font size:    
Page size: 

B E
variations - click chord images

Login - add to songbook

Transpose chords

Tuning

Rating click stars to rate

Layout
Accuracy

SHARE PAGE  




You need to log in to post comments