Guitar Tabs, Chords and Lyrics


Fury   Misc. Your Songs



Tabbed by:Aaron hendry
Song: Fury
Band:Cable
Email Address: Dopebox_is_high@hotmail.com
Yere this a song that i made up it is fukin easy and crap
Guitar
E|-----------------------------------|
B|-----------------------------------|
G|-----------------------------------|
D|-------7-7---5-5-------------------|x3
A|------------------77---------------|
E|--5-5------------------------------|

E|-----------------------------------|
B|-----------------------------------|
G|-----------------------------------|
D|-----------------7-7---------------|x3
A|-------7-7--5-5--------------------|
E|--5-5------------------------------|

E|-----------------------------------|
B|-----------------------------------|
G|-----------------------------------|
D|------------5-5--7-7---------------|x3
A|-------7-7-------------------------|
E|--5-5------------------------------|

E|-----------------------------------|
B|-----------------------------------|
G|-----------------------------------|
D|-----------------5-5---------------|x3
A|-------5-5--7-7--------------------|
E|--7-7------------------------------|

E|-----------------------------------|
B|-----------------------------------|
G|-----------------------------------|
D|-----------------------------------|x3
A|-------7-7--5-5--------------------|
E|--5-5------------------------------|

E|-----------------------------------|
B|-----------------------------------|
G|-----------------------------------|
D|-----------------5-5--7-7----------|x3
A|-------5-5--7-7--------------------|
E|--7-7------------------------------|

E|-----------------------------------|
B|-----------------------------------|
G|-----------------------------------|
D|-------7--5-----7^^^^--------------|x3
A|-------------7---------------------|


Important: The song above is NOT stored on the Chordie server. The original song is hosted at www.guitaretab.com. Chordie works as a search engine and provides on-the-fly formatting. Chordie does not index songs against artists'/composers' will. To remove this song please click here.

This song is displayed as text-only. Transposing and tuning is only available for chordpro-songs.

Login - add to songbook

Rating click stars to rate

Layout
Accuracy

SHARE PAGE  




You need to log in to post comments