Guitar Tabs, Chords and Lyrics


Just Give It Up   Misc. Your Songs



this is a pretty good song i made, and i hope u guys get the idea of the song,
so heres the song "Just Give It Up"
 
tuning: standard ( E B G D A E )

intro, no dist.
E|--------------------------------------|
B|--------------------------------------|
G|-----5-5-5-4-4-4-4------5-5-5-4-4-4-4-|
D|-2-2-5-5-5-4-4-4-4--2-2-5-5-5-4-4-4-4-|
A|-2-2-3-3-3-2-2-2-2--2-2-3-3-3-2-2-2-2-|
E|-0-0----------------0-0---------------|

E|------------------------------------|
B|------------------------------------|
G|-----9-9-9-5-5-5-5--9-9-5-5-----7-7-|
D|-2-2-9-9-9-5-5-5-5--9-9-5-5-5-5-7-7-|
A|-2-2-7-7-7-3-5-3-3--7-7-3-3-5-5-5-5-|
E|-0-0------------------------3-3-----|

verse, palm mute, no dist. play this slowly, slide slowly too, except 4 the #'s
that are close to each other

E|-----------------------|---------------
B|-----------------------|-----------------
G|-----------------------|-----------------
D|-----------------------|-----------------
A|-3-3-33----------------|3-3-33----5-5-5-7
E|-------3-3-3/5-5-55/1-1|---3-3--------

chorus, dist.
E|----------------------|--------------
B|----------------------|--------------
G|-5555-----------------|-5555----7779-
D|-55555555333377775555-|-555555557779-
A|-33335555333377775555-|-333355555557-
E|-----3333111155553333-|-----3333-----

bridge, play slow, except 4 the #'s that are close to each other
E|------------------------------
B|------------------------------
G|-5-5-55-----------------------
D|-5-5-55-5-5-55-7-7-77-3-3-3-3-
A|-3-3-33-5-5-55-7-7-77-3-3-3-3-


Important: The song above is NOT stored on the Chordie server. The original song is hosted at www.guitaretab.com. Chordie works as a search engine and provides on-the-fly formatting. Chordie does not index songs against artists'/composers' will. To remove this song please click here.

This song is displayed as text-only. Transposing and tuning is only available for chordpro-songs.

Login - add to songbook

Rating click stars to rate

Layout
Accuracy

SHARE PAGE  




You need to log in to post comments