Guitar Tabs, Chords and Lyrics


Eat F Ska  Misc. Your Songs

e-0-|-5-|-7-|-12-|


B-0-|-5-|-7-|-12-|


G-1-|-6-|-8-|-13-|

D-2-|-7-|-9-|-14-|
A-2-|-7-|-9-|-14-|
E-0-|-5-|-7-|-12-|
e-----------------| -----------------------|
B-----------------| ---------------------5-|
G--1---6---8---6--| --1---6------6---8-8---|
D---2---7---9---7-|x3---2---7-9-9-----------|
A-----------------| -----------------------|
E-0---5---7---5---| -0---5---7-7-5---7-7-5-|
[E]        [A]        [B]        [A]        [E]    [A] [B] [A] 
[E]went down[A]town to a [B]bagel shop [A]run by [E]je-ews [A]       [B]      [A]
[E]met a pretty [A]girl named [B]sweet tits, so i [A]made my [E]mo-ove [A]     [B]    [A]
i [E]asked if she [A]wanted to [B]dance and [A]she said [E]"yes"[A]     [B]    [A]
[E]then she turned to [A]me and she [B]said well [A]"eat f*** [E]ska"[A]    [B]
[A]eat f*** [E]ska-a[A]    [B]    [A]    [E]    [A]    [B]    [A]
verse 2:

[E]went down[A]town to the [B]burger king to [A]get a [E]cheese burg[A]er  [B]    [A]

[E]met a pretty [A]girl, and she [B]told me [A]meat was [E]murder[A]    [B]    [A]
i [E]said if you [A]need your [B]daily [A]protien in[E]gestion[A]    [B]    [A]
then [E]get down [A]on you [B]knees, and [A]eat f*** [E]ska [A]    [B]
A E A B A e A B A
eat f*** ska-a


verse 3:keep doing this in the background

e---------------------------------|
B---------------------------------|
G-----1-------6---------8-----6---|
D-------2-------7-----9---------7-|
A---2-------7-------9-------7-----|
E-0-------5-------7-------5-------|



[E]went down[A]town to a [B]bagel shop [A]run by [E]je-ews [A]       [B]      [A]
[E]met a pretty [A]girl named [B]sweet tits, so i [A]made my [E]mo-ove [A]     [B]    [A]
i [E]asked if she [A]wanted to [B]dance and [A]she said [E]"yes"[A]     [B]    [A]
[E]then she turned to [A]me and she [B]said well [A]"eat f*** [E]ska"[A]    [B]
[A]eat f*** [E]ska-a[A]    [B]
A E A B A e A B A
eat f*** ska

[A]eat f*** [E]ska

let the final E ring


I hope you like it, its kinda funny


hope you have two people for the last verse, if not then dont play the finger picking part, only the chords


if you have questions, comments, or want a recording of this awesome song, then email
me at fuser158@sbcglobal.net


rate this and my other tabs, please


Ug DoEs NoT tRiE tO bRaInWaSh YoU

Important: The song above is NOT stored on the Chordie server. The original song is hosted at www.guitaretab.com. Chordie works as a search engine and provides on-the-fly formatting. Chordie does not index songs against artists/composers will. To remove this song please click here.

Text color:
Chord color:
Chord grids: 
Font size:    
Page size: 

A B E
variations - click chord images

Login - add to songbook

Transpose chords

Tuning

Rating click stars to rate

Layout
Accuracy

SHARE PAGE  




You need to log in to post comments