Guitar Tabs, Chords and Lyrics


I Slit My Wrists And Cry   Misc. Your Songs


e[------------------]------------------]








B[------------------]------------------]








G[------------------]------------------]



D[--4---------------]--4---------------]



A[-2-0-H2-0-5-5-5-0-]-2-0-H2-0-5-5-5-0-]



E[---------3--------]---------3--------]



e[------------]



B[------------]



G[------------]



D[--4---------]



A[-2--5-5-5-0-]



E[---3--------]



e[------------]



B[------------]



G[------------]



D[--4---------]



A[-2--5-5-5-0-]



E[---3--------]



e[------------]



B[------------]



G[------------]



D[--4---------]



A[-2--5-5-5-0-]



E[---3--------]



e[------------]



B[------------]



G[------------]



D[--4---------]



A[-2--5-5-5-0-]



E[---3--------]



e[------------]



B[------------]



G[------------]



D[--4---------]



A[-2--5-5-5-0-]



E[---3--------]



e[------------]



B[------------]



G[------------]



D[--4---------]



A[-2--5-5-5-0-]



E[---3--------]



e[------------]



B[------------]



G[------------]



D[--4---------]



A[-2--5-5-5-0-]



E[---3--------]



e[------------]



B[------------]



G[------------]



D[--4---------]



A[-2--5-5-5-0-]



E[---3--------]



e[------------]



B[------------]



G[------------]



D[--4---------]



A[-2--5-5-5-0-]



E[---3--------]



e[------------]



B[------------]



G[------------]



D[--4---------]



A[-2--5-5-5-0-]



E[---3--------]



e[------------------]------------------]



B[------------------]------------------]



G[------------------]------------------]



D[--4---------------]--4---------------]



A[-2-0-H2-0-5-5-5-0-]-2-0-H2-0-5-5-5-0-]



E[---------3--------]---------3--------]



e[------------]



B[------------]



G[------------]



D[--4---------]



A[-2--5-5-5-0-]



E[---3--------]



e[------------]



B[------------]



G[------------]



D[--4---------]



A[-2--5-5-5-0-]



E[---3--------]



e[------------]



B[------------]



G[------------]



D[--4---------]



A[-2--5-5-5-0-]



E[---3--------]



e[------------]



B[------------]



G[------------]



D[--4---------]



A[-2--5-5-5-0-]



E[---3--------]



e[------------]



B[------------]



G[------------]



D[--4---------]



A[-2--5-5-5-0-]



E[---3--------]



e[------------]



B[------------]



G[------------]



D[--4---------]



A[-2--5-5-5-0-]



E[---3--------]



e[------------]



B[------------]



G[------------]



D[--4---------]



A[-2--5-5-5-0-]



E[---3--------]



e[------------]



B[------------]



G[------------]



D[--4---------]



A[-2--5-5-5-0-]



E[---3--------]



e[--------------------------]



B[--------------------------]



G[-------0-0----------------]



D[----4-4---4-4------0-0----]



A[-2-2------------4-4---4-4-]



E[-------------2-2----------]



e[--------------------------]



B[--------------------------]



G[-------0-0----------------]



D[----4-4---4-4------0-0----]



A[-2-2------------4-4---4-4-]



E[-------------2-2----------]



e[--------------------------]



B[--------------------------]



G[-------0-0----------------]



D[----4-4---4-4------0-0----]



A[-2-2------------4-4---4-4-]



E[-------------2-2----------]



Important: The song above is NOT stored on the Chordie server. The original song is hosted at www.guitaretab.com. Chordie works as a search engine and provides on-the-fly formatting. Chordie does not index songs against artists'/composers' will. To remove this song please click here.

This song is displayed as text-only. Transposing and tuning is only available for chordpro-songs.

Login - add to songbook

Rating click stars to rate

Layout
Accuracy

SHARE PAGE  




You need to log in to post comments