Guitar Tabs, Chords and Lyrics


One Last Breath  Misc. Your Songs

----------------------------------------------------------------------------



----------------------------------------------------------------------------

    [D]                       [A]                                                        
e|--2-----5-----0h2--------------------------------|
B|-------------------3--------2-3-3h5-----p5h3h2h3-|
G|----------------------2--------------------------|
D|--0--0-----0-------------------------------------|
A|-------------------------0-----------0-----------|
E|-------------------------------------------------|

      [Bm]                       [G]                                                      
e|----------------------------------------------3--2--|
B|----0-----3-----2h3--0------------------3-----------|
G|------------------------0---------0--------0--------|
D|-------------------------------0-----0--------------|
A|--0-2--2-----2--------------------------------------|
E|----------------------------3-----------------------|

    [D]                       [A]                                                        
e|--2-----3-----2--0h2----------------------------|
B|---------------------3---------0--p2h3h2-----0--|
G|----------------------------2-------------0-----|
D|--0--0-----0------------------------------------|
A|-----------------------4-0----------------------|
E|------------------------------------------------|

    [Bm]                [G]              [D]                                                 
e|----------2---------------3--------|
B|--------3---3-----------3---3------|
G|------4-------4---------------0----|
D|----4-----------4-----0------------|
A|--2-----------------x-----------3--|
E|------------------3----------------|

verse 1:
Please Come........
(do chords intro)

Chorus:
Hold me.........Im......
    [D]      [F#sus]          [Bm]       [G]          
verse 2:
(do chords intro)

Chorus:

Bridge:
    [Em]Sad eyes [G]follow [D]me
    But...[A]believe...[Bm]Something...[G]me
    So [Em]please...[G].      [D]
    But...[A]believe...[Bm]Something...[G]me

Intro:
1/2 of the Full intro... only the 1st D-A-Bm-G-

uminom ka muna ng tubig...4 sure nalito ka rin pare...


        ----------e n d----------



nakakapagod....tama yan walang mali....sadyang magaling po kasi aq.....
kung may mali,iemail nyo po ako:"Xfritzbudol@yahoo.com"..muah..

kung gz2 mong maglasing, text mo lang ako, 09202987484....inuman tayo....
napakaganda ng ultimate-guitar.com. mahal ko na toh..
F R E D E R I C K B U D O L - - -

Important: The song above is NOT stored on the Chordie server. The original song is hosted at www.guitaretab.com. Chordie works as a search engine and provides on-the-fly formatting. Chordie does not index songs against artists'/composers' will. To remove this song please click here.

Text color:
Chord color:
Chord grids: 
Font size:    
Page size: 

A Bm D Em F#sus G
variations - click chord images

Login - add to songbook

Transpose chords

Tuning

Rating click stars to rate

Layout
Accuracy

SHARE PAGE  




You need to log in to post comments