Guitar Tabs, Chords and Lyrics


The Devils Eyes  Misc. Your Songs

When the [D]devil fell Into the [D7]firey hell

He took [D]with him What no [D7]words could tell

He [A]takes your soul he doesn't [A7]care
Taking [A]souls Gives the [A7]devil his flare
VERSE 2

His [D]heart is cold His b[D7]lood is blakc

Without [D]warning He will [D7]stab you in the back
He is [A]your number one [A]enemy an [A7]indesrtucable force
In those [A]devil eyes Is [A7]where pain is sourced
VERSE 3
part 1

The [B7]devil is [B7]pure evil.............

He [A7]only knows [A]saddness.............
part 2

So [E]when you close [E]your eyes

Dont [E7]be suprised
To [E]find the devil [E]haunting you
when you say [E7]all those lies
Pre- Chours

[A]The devil will [A7]get ya

[A]The devil will [A7]yake ya
[A]To the undewrwo[A7]rld
[A]To his torute [A7]chamber
Chours

In [E]those devil eyes

In [E]those devil eyes
He [E7]sees only fire
Without [E7]love and deisire
In [D]those devil eyes
In [D]those devil eyes
Out of [D7]the black
The devil [D7]attacks
Ending

Welcome [D]to hell......

Welcome [D6]to hell......
Invation [D]only......
The devil [D6]grants you.................
To [D]hell
***********************************************************************

2ND GUITAR


INTRO:
e|--------12h14x8---12h15x8----------------|
B|-----------------------------------------|
G|-----------------------------------------| X2
D|-----------------------------------------|
A|-----------------------------------------|
E|-----------------------------------------|


RIFF 1
e|-----------------------------------------|
B|-----------------------------------------|
G|5--------------7-------------------------|
D|5x6-5-----7----7x6-----------------------|
A|3---5x6---7x6--5-------------------------|
E|----3-----5------------------------------|


RIFF 2

e|-----------------------------------------|
B|-----------------------------------------|
G|7----------------------------------------|
D|7x6-7-----9----7-------------------------|
A|5---7x6---9x6--7x6-----------------------|
E|----5-----7----5-------------------------|


RIFF 3

e|-----------------------------------------|
B|-----------------------------------------|
G|------2----------------------------------|
D|2-----2x8--------------------------------|  X2
A|2x8---0----------------------------------|
E|0----------------------------------------|


RIFF 4 (Pre-chours)

e|--3---------|----4-----------------------------|
B|--3---------|----4-----------------------------|
G|--3--4------|----4--5--------------------------|
D|--3-----5---|----4-----6-----------------------|
A|--3---5-----|----4---6-------------------------|
E|--3---------|----4-----------------------------|

x16 x16

RIFF 5 (chours)

e|--3---------|----4-----------------------------|
B|--3---------|----4-----------------------------|
G|--3---------|----4-----------------------------|
D|--3-----5---|----4-----6-----------------------|     X2
A|--3---5-----|----4---6-------------------------|
E|--3---------|----4-----------------------------|

x16 x16


***********************************************************************

3RD GUITAR

RIFF 1

e|-----4----4----4----4----4----4----4----4-----|
B|---5----5----5----5----5----5----5----5-------|
G|-4----4----4----4----4----4----4----4---------|
D|----------------------------------------------|
A|----------------------------------------------|
E|----------------------------------------------|



RIFF 2


e|-----5----5----5----5----5----5----5----5-----|
B|---6----6----6----6----6----6----6----6-------|
G|-5----5----5----5----5----5----5----5---------|
D|----------------------------------------------|
A|----------------------------------------------|
E|----------------------------------------------|



***********************************************************************

Important: The song above is NOT stored on the Chordie server. The original song is hosted at www.guitaretab.com. Chordie works as a search engine and provides on-the-fly formatting. Chordie does not index songs against artists'/composers' will. To remove this song please click here.

Text color:
Chord color:
Chord grids: 
Font size:    
Page size: 

A A7 B7 D D6 D7 E E7
variations - click chord images

Login - add to songbook

Transpose chords

Tuning

Rating click stars to rate

Layout
Accuracy

SHARE PAGE  




You need to log in to post comments