Guitar Tabs, Chords and Lyrics


Never Let You Down  Misc. Your Songs

|--3----3-----3------2-----0-----3--------------|


|--3----3-----3------3-----0-----5--------------|


|--0----0-----2------2-----0-----5--------------|

|--0----2-----0------0-----2-----5--------------|
|--2----3------------0-----2-----3--------------|
|--3-----------------2-----0-----3--------------|
i felt a [D/F]way i hadn't f[C9]elt in quite some t[G]ime.
D/F C9 Em C5?
It was a feeling from the moment we held hands,
D/F C9 G G, C9, D7
and when you kissed me sent a shiver down my spine.

D/F C9 Em C5?
And i was captured when i looked into your eyes,
it kinda f[D/F]roze me, and my h[C9]eart stopped for a wh[G]ile.
D/F C9 Em C5?
You should've seen me as i pulled out of your drive,
if i'd have d[D/F]ied they would've bu[C9]ried me with a sm[G]ile.

Chorus:

power chords
I pr[G]omise that i'll ad[C]ore you, never b[D]ore you or ig[C]nore you,
and i pro[G]mise, i will ne[C]ver make you fr[G]own.
I pro[G]mise i'll never h[C]urt you, never le[D]ave you or des[C]sert you,
and i pro[G]mise i will ne[C]ver let you do[G]wn.


Verse 2: same pattern

Woke up this morning with a smile on my face,
as the sun came up and shined into my room.
And i found my heart was in a very different place,
this place was happy and the only thing there was you.

This place had four coats of pollish on its nails,
a few cute wrinkles, with soft tips on the ends.
It held my heart perfectly like a shell holds a snail,
didn't take long to see that my heart was in your hands.

Repeat Chorus

Final verse:

picked like this:

|----------------------------------------------|
|-------0---------1---------0--------1---------|
|---------0---------0---------0--------0-------|
|--------------2-------------------2-----------|
|----2-------3-----------2-------3-------------|
|--3-------------------3-----------------------|


I could be good, i could be great, make a date i'll never be late,
and i promise i'll never give you the runaround.
I wanna go on forever, be with you and be together,
and i promise, i will never let you down.

ends with:

|---------------------3--------|
|-------1------------0---------|
|---------0---------0----------|
|----2------2------0-----------|
|--3----------3---2------------|
|----------------3-------------|				


Important: The song above is NOT stored on the Chordie server. The original song is hosted at www.guitaretab.com. Chordie works as a search engine and provides on-the-fly formatting. Chordie does not index songs against artists'/composers' will. To remove this song please click here.

Text color:
Chord color:
Chord grids: 
Font size:    
Page size: 

C C9 D D/F G
variations - click chord images

Login - add to songbook

Transpose chords

Tuning

Rating click stars to rate

Layout
Accuracy

SHARE PAGE  




You need to log in to post comments