Guitar Tabs, Chords and Lyrics


The Rightful King  Misc. Your Songs

e5-5h7-7---11------9(let ring)----------------------------------------------|


B--------------------------------7-9-7-9vvvvv--------9---11vv-11-9-7-6vvv---|


G---------------------------------------------8-10-11-10----------------7h8-|

D---------------------------------------------------------------------------|
A---------------------------------------------------------------------------|
E---------------------------------------------------------------------------|
[Am(4]      [E(4]     [Am(4]      [G(4]                    
[Am]The Sun Sets, and i n[E]ow know
A [Am]Decision, has been M[G]ade
A[Am]fter the Crow of the wa[E]tchbird
[Am]We Are all in sham[G]e
[Am]For the rightful one is in the du[E]mps
[Am]knowing nothing of his[G] past
[Am]All that he kno[G]ws is that he is lam[E]e
Chorus- Heavy Power Chords
[A]The Rightful King is [G]on the brink
[GGGGGGGG]Of Being.[F#F#F#F#]......Ext[E]inct! Repeat

Repeat Intro x2

Verse 2
[Am]Just ten more ye[E]ars until the next cheer
[Am]He might be the [G]one
[Am]To bring peace to the l[E]ands
[Am]And victory will be [G]won
[D]We shall rejoice in our m[C]ighty voice
T[Am]hy Kingdom [E]Come!

Chrous 2
[A]He's Coming Back! D[G]on't you cry
[GGGGGGGG]Jesus is h[F#F#F#F#]ere to make it[E] all right

Solo

e5-5h7-7---11------9(let ring)----------------------------------------------|
B--------------------------------7-9-7-9vvvvv--------9---11vv-11-9-7-6vvv---|
G---------------------------------------------8-10-11-10----------------7h8-|
D---------------------------------------------------------------------------|
A---------------------------------------------------------------------------|
E---------------------------------------------------------------------------|
e--------------------------------------------------------10--8-7------5vv-|
B------------------------------------------------7-8-10b---------8-7b-----|
G------------------------------------------8-7b---------------------------|
D-------------------------------------8-7b--------------------------------|
A5vv-5-5-5-5-5--5-5-5-5--5-5-5-5-7h8--------------------------------------|
E-------------------------------------------------------------------------|
e-10-8-7-8-10-12vvvvv-10-8-10-7vvv---------------------------------------|
B----------------------------------8-7-----------------------------------|
G--------------------------------------8-7vvvvvvv--------------7-7-------|
D-----------------------------------------------------8-7------7-7-2-----|
A----------------------------------------------------------8-7-5-5-2-----|
E------------------------------------------------------------------0-----|


Let ring while the acoustic plays the Verse

Then PLay Chorus 2 x4

Outro

e11-9--11-9-7--9-7-5--7-3-2-0vvvvv-0-----------------------------|
B----------------------------------0-----------------------------|
G----------------------------------1 (ring for like 10 seconds.0-|
D----------------------------------2-----------------------------|
A----------------------------------2-----------------------------|
E----------------------------------0-----------------------------|


Well that's my band. I wrote that song, yea. The bass is really thes thing.
But on the solo it is something like E E G G E E F# F# A A A A A A A A.

Thank you UG for letting me put this up here. Your the best tab site i have seen.

Toodles.

Brody Raney 13
Houston Texas.

Important: The song above is NOT stored on the Chordie server. The original song is hosted at www.guitaretab.com. Chordie works as a search engine and provides on-the-fly formatting. Chordie does not index songs against artists'/composers' will. To remove this song please click here.

Text color:
Chord color:
Chord grids: 
Font size:    
Page size: 

A Am C D E G
variations - click chord images

Login - add to songbook

Transpose chords

Tuning

Rating click stars to rate

Layout
Accuracy

SHARE PAGE  




You need to log in to post comments