Guitar Tabs, Chords and Lyrics


Drenge Som Mig  Misc. Your Songs

-------------------------------------------------------------------------------



-------------------------------------------------------------------------------

e|---------------------------------------------------------------------------|
B|--8-8-8----8-8-8----8-8-8--------------------------------------------------|
G|--------5--------4--------5--5-4-2-0---------------------------------------|
D|---------------------------------------------------------------------------|
A|---------------------------------------------------------------------------|
E|---------------------------------------------------------------------------|
[Am]Du lever i s[G]us og dus
[Em]Du har en fancy [F]bil, et tandpasta smil [Am]
Bor i et j[G]etsethus, [Em]med vægge af[F] guld og[G] juvel
Chords:
[Am]Drenge som mig, der blir [G]forelsket
[F]I piger som dig, [Em]er på dybt vand
For [G]du vil ha’ [Am]guld, jeg har kun [G]charme
[F]Er der overhovedet håb for [Em]mig og en [G]pige som dig?

Fig.1 x1

Vers:
[Am]Jeg pudser din [G]jaguar
[Em]Kommer klor i din [F]pool, mens du spiller [Am]cool
[G]Jeg venter til dommedag på [Em]dig
[G]Hvornår får du ø[C]jnen[Am]e op for mig

Chords:
[Am]Drenge som mig, der blir [G]forelsket
[F]I piger som dig, [Em]er på dybt vand
For [G]du vil ha’ [Am]guld, jeg har kun [G]charme
[F]Er der overhovedet håb for [Em]mig og en [G]pige som dig?


Fig. 2 ___2___
e|--------------------------------------------------------------|-------|
B|--------------------------------------------------------------|-------|
G|o--------------10-9--9--9-10-9-12-9--9--9----7--9--10-9-7----o|-2-----|
D|o-7--7--7-9-10-x--x--x--x-x--x-x--x--x--x----x--x--x--x-x-10-o|-3-----|
A|--x--x--x-x-x--8--7--7--7-8--7-10-7--7--7----5--7--8--7-5-x---|-3-----|
E|--5--5--5-7-8---------------------------------------------8---|-1-----|


Fig. 2 with text:
Sig mig lige engang, hvem tror du egentligt jeg er
Jeg skal ha' store biler, bling bling og blær
Så sig mig hvorfor sku jeg ta’ en lille taber som dig,
Med en lillebitte svaber, ha det tænder ikke mig
Fig. 2
Det kan da godt være at du har charme, det kan da godt være du er sød,
Men jeg tænder kun på magt og penge, og på store brød
Så hvorfor sku jeg ta’ en lille taber som dig
Ja sig mig, hvorfor sku jeg ta’ en lille taber som dig
Fig. 3 Am G F Em
e|----------------0------------3-----------1---------0-------3-----------|
B|------------------1------------3-----------1---------0-------3---------|
G|--------------2-----2------0-----0-----2-----2-------------------------|
D|------------2------------0-----------3-----------2---------------------|
A|----------0------------------------------------2---------2-------------|
E|-----------------------3-----------1-------------------3---------------|
e|----------------0------------3-----------1-----------------------------|
B|------------------1------------3-----------1---------------------------|
G|--------------2-----2------0-----0-----2-----2-----0-0---4-4-----------|
D|------------2------------0-----------3---------3---2-2---5-5-----------|
A|----------0----------------------------------------2-2---5-5-----------|
E|-----------------------3-----------1---------------0-0---3-3-----------|



Chords: with Fig. 3

Chords:
Drenge som [Am]mig, der blir [G]forelsket
I piger som [F]dig, er på dybt v[Em]and
[G]For du vil ha’ [Am]guld, jeg har kun [G]charme
[F]Er der overhovedet håb for [Em]mig og [G]en pige som dig?

Outro: with Fig. 1
Drenge som mig, piger som dig, la la la
Drenge som mig, piger som dig la la la      [Em]   [G]

Chords: E A D G B E
		-----------

G 3 2 0 0 3 3
Em 0 2 2 0 0 0
[F]C               [1]- [3]3 [3]2 [2]0 [1]1 [1]0

WWW.johnnydelux.dk

Important: The song above is NOT stored on the Chordie server. The original song is hosted at www.guitaretab.com. Chordie works as a search engine and provides on-the-fly formatting. Chordie does not index songs against artists'/composers' will. To remove this song please click here.

Text color:
Chord color:
Chord grids: 
Font size:    
Page size: 

Am C Em F G
variations - click chord images

Login - add to songbook

Transpose chords

Tuning

Rating click stars to rate

Layout
Accuracy

SHARE PAGE  




You need to log in to post comments