Guitar Tabs, Chords and Lyrics


Todays The Day   Misc. Your Songs



Todays The Day
Out Of The Blue
Matt Schultz

Tuning: 1/2 step down

This song copyrighted 2006 along with anyother Titles


This Is a punk type song. Don't have lyrics.. If you yhave suggestions of comments, PM 
(Pm me some lyics if you get some)


Guitars:

Guitar I / Rhythm / Heavy Distortion
Guitar II / Lead / Very Heavy Distortion


Main riff:
Guitar I
-
|---------------------------------|
|---------------------------------|
|---------------------------------|
|---------------------------------|
|-5-5-x-12-12---)-7-7-x-x-7-7-7---|
|-3-3-x-10-10--8--5-5-x-x-5-5-5---|


Guitar solo:
                              )
|---------)-------)--5-8P5P0-8--5-----)-10-----------|
|-----)--8-5-----6----------------8/10----10-8-8\----|
|----5--5---7P5H7-7----------------------------9\----|
|-5h7-7----------------------------------------------|
|----------------------------------------------------|
|----------------------------------------------------|

Guitar II
   )
|-8--5--------------------------|
|------8-5----------------------|
|---------7-5-------------------|
|------------7-5----------------|
|---------------7-5~~~~~-----7--|
|------------------------8~~-5--|

The solo is very fast. PM me if you like the tab



Important: The song above is NOT stored on the Chordie server. The original song is hosted at www.guitaretab.com. Chordie works as a search engine and provides on-the-fly formatting. Chordie does not index songs against artists'/composers' will. To remove this song please click here.

This song is displayed as text-only. Transposing and tuning is only available for chordpro-songs.

Login - add to songbook

Rating click stars to rate

Layout
Accuracy

SHARE PAGE  




You need to log in to post comments