Guitar Tabs, Chords and Lyrics


Guitar Pro 5 Theme   Various Artists



I worked out the little acoustic part played when you open up Guitar Pro 5, Have 
to play along to right before you learn a song :D

Jamie

e|--------0-2p0-------------------------------------0--2---------------|
B|------3-------3--------3-----3--3-----------0-2-3----3---------------|
G|----2-----------2----0-----0----0---------2----------2---------------|
D|--0-----------------------------0-------2------------0---------------|
A|-------------------3-----2------3-----0------------------------------|
E|---------------------------------------------------------------------|

OR

e|---------------------------------------------------------------------|
B|--------5-7p5------------------------------------5--7----------------|
G|------7-------7--------7-----7---7---------4-6-7----7----------------|
D|----7-----------7----5-----5-----5-------7----------7----------------|
A|--5----------------3-----2-------3-----7------------5----------------|


Important: The song above is NOT stored on the Chordie server. The original song is hosted at www.guitaretab.com. Chordie works as a search engine and provides on-the-fly formatting. Chordie does not index songs against artists'/composers' will. To remove this song please click here.

This song is displayed as text-only. Transposing and tuning is only available for chordpro-songs.

Login - add to songbook

Rating click stars to rate

Layout
Accuracy

SHARE PAGE  




You need to log in to post comments